  0
SECTION
  2
HEADER
  9
$ACADVER
  1
AC1018
  9
$ACADMAINTVER
 70
     2
  9
$DWGCODEPAGE
  3
ANSI_1252
  9
$INSBASE
 10
3511.66404377648
 20
3468.383972535801
 30
0.0
  9
$EXTMIN
 10
3511.66404377648
 20
498.3839725358007
 30
0.0
  9
$EXTMAX
 10
5611.66404377648
 20
3468.383972535801
 30
0.0
  9
$LIMMIN
 10
0.0
 20
0.0
  9
$LIMMAX
 10
12.0
 20
9.0
  9
$ORTHOMODE
 70
     1
  9
$REGENMODE
 70
     1
  9
$FILLMODE
 70
     1
  9
$QTEXTMODE
 70
     0
  9
$MIRRTEXT
 70
     1
  9
$LTSCALE
 40
1.0
  9
$ATTMODE
 70
     1
  9
$TEXTSIZE
 40
8.0
  9
$TRACEWID
 40
0.05
  9
$TEXTSTYLE
  7
STANDARD
  9
$CLAYER
  8
TORO
  9
$CELTYPE
  6
BYLAYER
  9
$CECOLOR
 62
     7
  9
$CELTSCALE
 40
1.0
  9
$DISPSILH
 70
     0
  9
$DIMSCALE
 40
1.0
  9
$DIMASZ
 40
0.18
  9
$DIMEXO
 40
0.0625
  9
$DIMDLI
 40
0.38
  9
$DIMRND
 40
0.0
  9
$DIMDLE
 40
0.0
  9
$DIMEXE
 40
0.18
  9
$DIMTP
 40
0.0
  9
$DIMTM
 40
0.0
  9
$DIMTXT
 40
0.18
  9
$DIMCEN
 40
0.09
  9
$DIMTSZ
 40
0.0
  9
$DIMTOL
 70
     0
  9
$DIMLIM
 70
     0
  9
$DIMTIH
 70
     1
  9
$DIMTOH
 70
     1
  9
$DIMSE1
 70
     0
  9
$DIMSE2
 70
     0
  9
$DIMTAD
 70
     0
  9
$DIMZIN
 70
     0
  9
$DIMBLK
  1

  9
$DIMASO
 70
     1
  9
$DIMSHO
 70
     1
  9
$DIMPOST
  1

  9
$DIMAPOST
  1

  9
$DIMALT
 70
     0
  9
$DIMALTD
 70
     2
  9
$DIMALTF
 40
25.4
  9
$DIMLFAC
 40
1.0
  9
$DIMTOFL
 70
     0
  9
$DIMTVP
 40
0.0
  9
$DIMTIX
 70
     0
  9
$DIMSOXD
 70
     0
  9
$DIMSAH
 70
     0
  9
$DIMBLK1
  1

  9
$DIMBLK2
  1

  9
$DIMSTYLE
  2
STANDARD
  9
$DIMCLRD
 70
     0
  9
$DIMCLRE
 70
     0
  9
$DIMCLRT
 70
     0
  9
$DIMTFAC
 40
1.0
  9
$DIMGAP
 40
0.09
  9
$DIMJUST
 70
     0
  9
$DIMSD1
 70
     0
  9
$DIMSD2
 70
     0
  9
$DIMTOLJ
 70
     1
  9
$DIMTZIN
 70
     0
  9
$DIMALTZ
 70
     0
  9
$DIMALTTZ
 70
     0
  9
$DIMUPT
 70
     0
  9
$DIMDEC
 70
     4
  9
$DIMTDEC
 70
     4
  9
$DIMALTU
 70
     2
  9
$DIMALTTD
 70
     2
  9
$DIMTXSTY
  7
STANDARD
  9
$DIMAUNIT
 70
     0
  9
$DIMADEC
 70
     0
  9
$DIMALTRND
 40
0.0
  9
$DIMAZIN
 70
     0
  9
$DIMDSEP
 70
    46
  9
$DIMATFIT
 70
     3
  9
$DIMFRAC
 70
     0
  9
$DIMLDRBLK
  1

  9
$DIMLUNIT
 70
     2
  9
$DIMLWD
 70
    -2
  9
$DIMLWE
 70
    -2
  9
$DIMTMOVE
 70
     0
  9
$LUNITS
 70
     2
  9
$LUPREC
 70
     2
  9
$SKETCHINC
 40
0.1
  9
$FILLETRAD
 40
50.0
  9
$AUNITS
 70
     0
  9
$AUPREC
 70
     2
  9
$MENU
  1
acad
  9
$ELEVATION
 40
0.0
  9
$PELEVATION
 40
0.0
  9
$THICKNESS
 40
0.0
  9
$LIMCHECK
 70
     0
  9
$CHAMFERA
 40
0.0
  9
$CHAMFERB
 40
0.0
  9
$CHAMFERC
 40
0.0
  9
$CHAMFERD
 40
0.0
  9
$SKPOLY
 70
     0
  9
$TDCREATE
 40
2451233.382684283
  9
$TDUCREATE
 40
2451233.341017616
  9
$TDUPDATE
 40
2453803.442473958
  9
$TDUUPDATE
 40
2453803.400807292
  9
$TDINDWG
 40
2.4930278009
  9
$TDUSRTIMER
 40
2.4930278009
  9
$USRTIMER
 70
     1
  9
$ANGBASE
 50
0.0
  9
$ANGDIR
 70
     0
  9
$PDMODE
 70
     0
  9
$PDSIZE
 40
0.0
  9
$PLINEWID
 40
0.0
  9
$SPLFRAME
 70
     0
  9
$SPLINETYPE
 70
     6
  9
$SPLINESEGS
 70
     8
  9
$HANDSEED
  5
1E9
  9
$SURFTAB1
 70
     6
  9
$SURFTAB2
 70
     6
  9
$SURFTYPE
 70
     6
  9
$SURFU
 70
     6
  9
$SURFV
 70
     6
  9
$UCSBASE
  2

  9
$UCSNAME
  2

  9
$UCSORG
 10
0.0
 20
0.0
 30
0.0
  9
$UCSXDIR
 10
1.0
 20
0.0
 30
0.0
  9
$UCSYDIR
 10
0.0
 20
1.0
 30
0.0
  9
$UCSORTHOREF
  2

  9
$UCSORTHOVIEW
 70
     0
  9
$UCSORGTOP
 10
0.0
 20
0.0
 30
0.0
  9
$UCSORGBOTTOM
 10
0.0
 20
0.0
 30
0.0
  9
$UCSORGLEFT
 10
0.0
 20
0.0
 30
0.0
  9
$UCSORGRIGHT
 10
0.0
 20
0.0
 30
0.0
  9
$UCSORGFRONT
 10
0.0
 20
0.0
 30
0.0
  9
$UCSORGBACK
 10
0.0
 20
0.0
 30
0.0
  9
$PUCSBASE
  2

  9
$PUCSNAME
  2

  9
$PUCSORG
 10
0.0
 20
0.0
 30
0.0
  9
$PUCSXDIR
 10
1.0
 20
0.0
 30
0.0
  9
$PUCSYDIR
 10
0.0
 20
1.0
 30
0.0
  9
$PUCSORTHOREF
  2

  9
$PUCSORTHOVIEW
 70
     0
  9
$PUCSORGTOP
 10
0.0
 20
0.0
 30
0.0
  9
$PUCSORGBOTTOM
 10
0.0
 20
0.0
 30
0.0
  9
$PUCSORGLEFT
 10
0.0
 20
0.0
 30
0.0
  9
$PUCSORGRIGHT
 10
0.0
 20
0.0
 30
0.0
  9
$PUCSORGFRONT
 10
0.0
 20
0.0
 30
0.0
  9
$PUCSORGBACK
 10
0.0
 20
0.0
 30
0.0
  9
$USERI1
 70
     0
  9
$USERI2
 70
     0
  9
$USERI3
 70
     0
  9
$USERI4
 70
     0
  9
$USERI5
 70
     0
  9
$USERR1
 40
0.0
  9
$USERR2
 40
0.0
  9
$USERR3
 40
0.0
  9
$USERR4
 40
0.0
  9
$USERR5
 40
0.0
  9
$WORLDVIEW
 70
     1
  9
$SHADEDGE
 70
     3
  9
$SHADEDIF
 70
    70
  9
$TILEMODE
 70
     1
  9
$MAXACTVP
 70
    16
  9
$PINSBASE
 10
0.0
 20
0.0
 30
0.0
  9
$PLIMCHECK
 70
     0
  9
$PEXTMIN
 10
1.000000000000000E+20
 20
1.000000000000000E+20
 30
1.000000000000000E+20
  9
$PEXTMAX
 10
-1.000000000000000E+20
 20
-1.000000000000000E+20
 30
-1.000000000000000E+20
  9
$PLIMMIN
 10
0.0
 20
0.0
  9
$PLIMMAX
 10
12.0
 20
9.0
  9
$UNITMODE
 70
     0
  9
$VISRETAIN
 70
     0
  9
$PLINEGEN
 70
     0
  9
$PSLTSCALE
 70
     1
  9
$TREEDEPTH
 70
  3020
  9
$CMLSTYLE
  2
STANDARD
  9
$CMLJUST
 70
     0
  9
$CMLSCALE
 40
1.0
  9
$PROXYGRAPHICS
 70
     1
  9
$MEASUREMENT
 70
     0
  9
$CELWEIGHT
370
    -1
  9
$ENDCAPS
280
     0
  9
$JOINSTYLE
280
     0
  9
$LWDISPLAY
290
     0
  9
$INSUNITS
 70
     0
  9
$HYPERLINKBASE
  1

  9
$STYLESHEET
  1
monochrome.ctb
  9
$XEDIT
290
     1
  9
$CEPSNTYPE
380
     0
  9
$PSTYLEMODE
290
     1
  9
$FINGERPRINTGUID
  2
{525C2D40-64AE-11D9-82E1-0000E273DF3E}
  9
$VERSIONGUID
  2
{FA29B5FC-F545-40B6-81AF-3B8CBE52122F}
  9
$EXTNAMES
290
     1
  9
$PSVPSCALE
 40
0.0
  9
$OLESTARTUP
290
     0
  9
$SORTENTS
280
   127
  9
$INDEXCTL
280
     0
  9
$HIDETEXT
280
     0
  9
$XCLIPFRAME
290
     0
  9
$HALOGAP
280
     0
  9
$OBSCOLOR
 70
   257
  9
$OBSLTYPE
280
     0
  9
$INTERSECTIONDISPLAY
280
     0
  9
$INTERSECTIONCOLOR
 70
   257
  9
$DIMASSOC
280
     1
  9
$PROJECTNAME
  1

  0
ENDSEC
  0
SECTION
  2
CLASSES
  0
CLASS
  1
ACDBDICTIONARYWDFLT
  2
AcDbDictionaryWithDefault
  3
ObjectDBX Classes
 90
        0
 91
        1
280
     0
281
     0
  0
ENDSEC
  0
SECTION
  2
TABLES
  0
TABLE
  2
VPORT
  5
12
330
0
100
AcDbSymbolTable
 70
     2
  0
VPORT
  5
1E8
330
12
100
AcDbSymbolTableRecord
100
AcDbViewportTableRecord
  2
*Active
 70
     0
 10
0.0
 20
0.0
 11
1.0
 21
1.0
 12
5786.222448570041
 22
2058.785740814343
 13
0.0
 23
0.0
 14
1.0
 24
1.0
 15
0.0
 25
0.0
 16
0.0
 26
0.0
 36
1.0
 17
0.0
 27
0.0
 37
0.0
 40
4914.351845990001
 41
1.757855822550831
 42
50.0
 43
0.0
 44
0.0
 50
0.0
 51
0.0
 71
     0
 72
   100
 73
     1
 74
     1
 75
     0
 76
     0
 77
     0
 78
     0
281
     0
 65
     1
110
0.0
120
0.0
130
0.0
111
1.0
121
0.0
131
0.0
112
0.0
122
1.0
132
0.0
 79
     0
146
0.0
  0
ENDTAB
  0
TABLE
  2
LTYPE
  5
E
330
0
100
AcDbSymbolTable
 70
     1
  0
LTYPE
  5
F
330
E
100
AcDbSymbolTableRecord
100
AcDbLinetypeTableRecord
  2
BYBLOCK
 70
     0
  3

 72
    65
 73
     0
 40
0.0
  0
LTYPE
  5
6
330
E
100
AcDbSymbolTableRecord
100
AcDbLinetypeTableRecord
  2
BYLAYER
 70
     0
  3

 72
    65
 73
     0
 40
0.0
  0
LTYPE
  5
5
330
E
100
AcDbSymbolTableRecord
100
AcDbLinetypeTableRecord
  2
CONTINUOUS
 70
     0
  3
Solid line
 72
    65
 73
     0
 40
0.0
  0
ENDTAB
  0
TABLE
  2
LAYER
  5
B
330
0
100
AcDbSymbolTable
 70
     2
  0
LAYER
  5
4
330
B
100
AcDbSymbolTableRecord
100
AcDbLayerTableRecord
  2
0
 70
     0
 62
     7
  6
CONTINUOUS
370
    -3
390
179
  0
LAYER
  5
52
330
B
100
AcDbSymbolTableRecord
100
AcDbLayerTableRecord
  2
TORO
 70
     0
 62
     2
  6
CONTINUOUS
370
    -3
390
179
  0
ENDTAB
  0
TABLE
  2
STYLE
  5
C
330
0
100
AcDbSymbolTable
 70
     3
  0
STYLE
  5
D
330
C
100
AcDbSymbolTableRecord
100
AcDbTextStyleTableRecord
  2
STANDARD
 70
     0
 40
8.0
 41
1.0
 50
0.0
 71
     0
 42
8.0
  3
TIMES.TTF
  4

1001
ACAD
1000
Times New Roman
1071
       18
  0
STYLE
  5
31
330
C
100
AcDbSymbolTableRecord
100
AcDbTextStyleTableRecord
  2
ROMANT
 70
     0
 40
0.0
 41
1.0
 50
0.0
 71
     0
 42
18.0
  3
romant.shx
  4

  0
STYLE
  5
3B
330
C
100
AcDbSymbolTableRecord
100
AcDbTextStyleTableRecord
  2
ROMANS
 70
     0
 40
0.0
 41
1.0
 50
0.0
 71
     0
 42
0.2
  3
ROMANS
  4

  0
ENDTAB
  0
TABLE
  2
VIEW
  5
10
330
0
100
AcDbSymbolTable
 70
     0
  0
ENDTAB
  0
TABLE
  2
UCS
  5
11
330
0
100
AcDbSymbolTable
 70
     0
  0
ENDTAB
  0
TABLE
  2
APPID
  5
14
330
0
100
AcDbSymbolTable
 70
     1
  0
APPID
  5
15
330
14
100
AcDbSymbolTableRecord
100
AcDbRegAppTableRecord
  2
ACAD
 70
     0
  0
ENDTAB
  0
TABLE
  2
DIMSTYLE
  5
16
330
0
100
AcDbSymbolTable
 70
     1
100
AcDbDimStyleTable
 71
     0
  0
DIMSTYLE
105
1C
330
16
100
AcDbSymbolTableRecord
100
AcDbDimStyleTableRecord
  2
STANDARD
 70
     0
340
D
  0
ENDTAB
  0
TABLE
  2
BLOCK_RECORD
  5
1
330
0
100
AcDbSymbolTable
 70
     1
  0
BLOCK_RECORD
  5
2
330
1
100
AcDbSymbolTableRecord
100
AcDbBlockTableRecord
  2
*MODEL_SPACE
340
17E
  0
BLOCK_RECORD
  5
8
330
1
100
AcDbSymbolTableRecord
100
AcDbBlockTableRecord
  2
*PAPER_SPACE
340
17F
  0
BLOCK_RECORD
  5
4F
330
1
100
AcDbSymbolTableRecord
100
AcDbBlockTableRecord
  2
TOROG
340
0
102
{BLKREFS
331
4E
102
}
  0
ENDTAB
  0
ENDSEC
  0
SECTION
  2
BLOCKS
  0
BLOCK
  5
3
330
2
100
AcDbEntity
  8
0
100
AcDbBlockBegin
  2
*MODEL_SPACE
 70
     0
 10
0.0
 20
0.0
 30
0.0
  3
*MODEL_SPACE
  1

  0
ENDBLK
  5
7
330
2
100
AcDbEntity
  8
0
100
AcDbBlockEnd
  0
BLOCK
  5
9
330
8
100
AcDbEntity
 67
     1
  8
0
100
AcDbBlockBegin
  2
*PAPER_SPACE
 70
     0
 10
0.0
 20
0.0
 30
0.0
  3
*PAPER_SPACE
  1

  0
ENDBLK
  5
A
330
8
100
AcDbEntity
 67
     1
  8
0
100
AcDbBlockEnd
  0
BLOCK
  5
149
330
4F
100
AcDbEntity
  8
0
100
AcDbBlockBegin
  2
TOROG
 70
     0
 10
0.0
 20
0.0
 30
0.0
  3
TOROG
  1

  0
LWPOLYLINE
  5
50
330
4F
100
AcDbEntity
  8
TORO
 62
     2
100
AcDbPolyline
 90
       13
 70
     0
 43
0.0
 10
0.0
 20
0.0
 42
0.2019685003889463
 10
41.54454771565497
 20
64.82240945934655
 42
0.0985913343674146
 10
40.56416778696029
 20
103.7601809177759
 42
-0.068380806954419
 10
25.80145728417347
 20
102.1909585098105
 42
-0.0115521445445701
 10
20.27696479271936
 20
102.4882062162332
 42
-0.0685890330911748
 10
11.8396216750516
 20
104.3202883309291
 42
0.0910233137488948
 10
-0.0531228065469804
 20
106.3524263997192
 42
0.0910233137488948
 10
-11.94586728814693
 20
104.3202883309291
 42
-0.0685890330911748
 10
-20.38321040581513
 20
102.4882062162332
 42
-0.0115521445445701
 10
-25.90770289726925
 20
102.1909585098105
 42
-0.0679033213481723
 10
-40.56975345609726
 20
103.7353879562524
 42
0.09852700536625
 10
-41.54454771565497
 20
64.82240945934655
 42
0.2019685003889464
 10
0.0
 20
0.0
  0
CIRCLE
  5
60
330
4F
100
AcDbEntity
  8
TORO
 62
     2
100
AcDbCircle
 10
30.17267011760441
 20
140.4528638299148
 30
0.0
 40
4.755963302752293
  0
ARC
  5
61
330
4F
100
AcDbEntity
  8
TORO
 62
     2
100
AcDbCircle
 10
32.37134434730752
 20
117.6755069990067
 30
0.0
 40
0.650034382538559
100
AcDbArc
 50
246.6729932983745
 51
81.94096051922427
  0
ARC
  5
62
330
4F
100
AcDbEntity
  8
TORO
 62
     2
100
AcDbCircle
 10
-4.219589738824652
 20
127.3799269354872
 30
0.0
 40
4.156472461728852
100
AcDbArc
 50
183.1128807968099
 51
3.11288079680986
  0
ARC
  5
63
330
4F
100
AcDbEntity
  8
TORO
  6
Continuous
 62
     2
100
AcDbCircle
 10
0.5091178111374575
 20
-9.574179104877202
 30
0.0
 40
122.1688073394585
100
AcDbArc
 50
90.27124902654467
 51
103.8724303842074
  0
ARC
  5
64
330
4F
100
AcDbEntity
  8
TORO
  6
Continuous
 62
     2
100
AcDbCircle
 10
0.5091178111374575
 20
-7.93931671954715
 30
0.0
 40
122.1688073394495
100
AcDbArc
 50
90.27124902654472
 51
104.059475236663
  0
ARC
  5
65
330
4F
100
AcDbEntity
  8
TORO
  6
Continuous
 62
     2
100
AcDbCircle
 10
0.3604939579267921
 20
-0.6567479122072655
 30
0.0
 40
122.1688073394495
100
AcDbArc
 50
90.20154553417638
 51
105.4828427127251
  0
ARC
  5
66
330
4F
100
AcDbEntity
  8
TORO
  6
Continuous
 62
     2
100
AcDbCircle
 10
0.3604939579267921
 20
0.6808667666914517
 30
0.0
 40
122.1688073394495
100
AcDbArc
 50
90.20154553417638
 51
105.7335218332242
  0
ARC
  5
67
330
4F
100
AcDbEntity
  8
TORO
 62
     2
100
AcDbCircle
 10
-12.56244291900339
 20
127.0591497810633
 30
0.0
 40
4.193591349053703
100
AcDbArc
 50
195.7668051676849
 51
1.2989832138581
  0
LINE
  5
68
330
4F
100
AcDbEntity
  8
TORO
  6
Continuous
 62
     2
100
AcDbLine
 10
-32.25244519791477
 20
117.0786065330949
 30
0.0
 11
-29.41036823455579
 21
110.4879306240004
 31
0.0
  0
ARC
  5
69
330
4F
100
AcDbEntity
  8
TORO
 62
     2
100
AcDbCircle
 10
-29.10040615709068
 20
109.7691395345914
 30
0.0
 40
0.8036240434154342
100
AcDbArc
 50
94.91255305533522
 51
293.3270067019055
  0
LWPOLYLINE
  5
6A
330
4F
100
AcDbEntity
  8
TORO
  6
Continuous
 62
     2
100
AcDbPolyline
 90
        2
 70
     0
 43
0.0
 10
-9.296493932951761
 20
105.1753015979593
 42
-0.0572528948556276
 10
-28.78218841531452
 20
109.0312038517745
 42
-0.0559255316605078
  0
CIRCLE
  5
6E
330
4F
100
AcDbEntity
  8
TORO
 62
     2
100
AcDbCircle
 10
-30.31117052585887
 20
140.4528638299148
 30
0.0
 40
4.755963302752293
  0
LINE
  5
6F
330
4F
100
AcDbEntity
  8
TORO
 62
     2
100
AcDbLine
 10
-27.23483212544806
 20
120.2648207703619
 30
0.0
 11
-32.89249145346957
 21
118.5628511512282
 31
0.0
  0
ARC
  5
70
330
4F
100
AcDbEntity
  8
TORO
 62
     2
100
AcDbCircle
 10
-32.50984475556152
 20
117.6755069990067
 30
0.0
 40
0.650034382538559
100
AcDbArc
 50
98.05903948077572
 51
293.3270067016255
  0
ARC
  5
71
330
4F
100
AcDbEntity
  8
TORO
 62
     2
100
AcDbCircle
 10
-20.86389342863049
 20
125.8861325363627
 30
0.0
 40
4.265772327604408
100
AcDbArc
 50
196.9167736468371
 51
0.4502712580381473
  0
ARC
  5
72
330
4F
100
AcDbEntity
  8
TORO
 62
     2
100
AcDbCircle
 10
-29.3926295769943
 20
124.1813800445275
 30
0.0
 40
4.471635762659074
100
AcDbArc
 50
298.852220072897
 51
5.94943446913384
  0
ARC
  5
73
330
4F
100
AcDbEntity
  8
TORO
  6
Continuous
 62
     2
100
AcDbCircle
 10
-0.6476182193905516
 20
-7.93931671954715
 30
0.0
 40
122.1688073394495
100
AcDbArc
 50
75.94052476333692
 51
89.72875097345529
  0
ARC
  5
74
330
4F
100
AcDbEntity
  8
TORO
  6
Continuous
 62
     2
100
AcDbCircle
 10
-0.6476182193905516
 20
-9.574179104877202
 30
0.0
 40
122.1688073394585
100
AcDbArc
 50
76.12756961579258
 51
89.72875097345532
  0
LINE
  5
75
330
4F
100
AcDbEntity
  8
TORO
  6
Continuous
 62
     2
100
AcDbLine
 10
32.11394478966076
 20
117.0786065330949
 30
0.0
 11
29.27186782630224
 21
110.4879306240004
 31
0.0
  0
LWPOLYLINE
  5
76
330
4F
100
AcDbEntity
  8
TORO
  6
Continuous
 62
     2
100
AcDbPolyline
 90
        2
 70
     0
 43
0.0
 10
9.157993524698213
 20
105.1753015979593
 42
0.0572528948556276
 10
28.64368800706007
 20
109.0312038517745
 42
0.0559255316605078
  0
ARC
  5
7A
330
4F
100
AcDbEntity
  8
TORO
 62
     2
100
AcDbCircle
 10
28.96190574883713
 20
109.7691395345914
 30
0.0
 40
0.8036240434154342
100
AcDbArc
 50
246.6729932980945
 51
85.08744694466479
  0
CIRCLE
  5
7B
330
4F
100
AcDbEntity
  8
TORO
 62
     2
100
AcDbCircle
 10
10.17305463177308
 20
144.8830751022883
 30
0.0
 40
4.755963302752293
  0
ARC
  5
7C
330
4F
100
AcDbEntity
  8
TORO
  6
Continuous
 62
     2
100
AcDbCircle
 10
-0.4989943661803409
 20
0.6808667666914517
 30
0.0
 40
122.1688073394495
100
AcDbArc
 50
74.26647816677574
 51
89.79845446582361
  0
ARC
  5
7D
330
4F
100
AcDbEntity
  8
TORO
  6
Continuous
 62
     2
100
AcDbCircle
 10
-0.4989943661803409
 20
-0.6567479122072655
 30
0.0
 40
122.1688073394495
100
AcDbArc
 50
74.51715728727485
 51
89.79845446582361
  0
ARC
  5
7E
330
4F
100
AcDbEntity
  8
TORO
 62
     2
100
AcDbCircle
 10
12.42394251074847
 20
127.0591497810633
 30
0.0
 40
4.193591349053703
100
AcDbArc
 50
178.7010167861419
 51
344.2331948323151
  0
CIRCLE
  5
7F
330
4F
100
AcDbEntity
  8
TORO
 62
     2
100
AcDbCircle
 10
-0.0692502041270018
 20
145.4404997942142
 30
0.0
 40
4.755963302752293
  0
ARC
  5
80
330
4F
100
AcDbEntity
  8
TORO
 62
     2
100
AcDbCircle
 10
4.081089330570193
 20
127.3799269354872
 30
0.0
 40
4.156472461728852
100
AcDbArc
 50
176.8871192031901
 51
356.8871192031902
  0
CIRCLE
  5
81
330
4F
100
AcDbEntity
  8
TORO
 62
     2
100
AcDbCircle
 10
20.29379758773075
 20
143.2139158354316
 30
0.0
 40
4.755963302752293
  0
ARC
  5
82
330
4F
100
AcDbEntity
  8
TORO
 62
     2
100
AcDbCircle
 10
20.72539302037558
 20
125.8861325363627
 30
0.0
 40
4.265772327604408
100
AcDbArc
 50
179.5497287419618
 51
343.0832263531629
  0
LINE
  5
83
330
4F
100
AcDbEntity
  8
TORO
 62
     2
100
AcDbLine
 10
27.09633171719315
 20
120.2648207703619
 30
0.0
 11
32.75399104521466
 21
118.5628511512282
 31
0.0
  0
ARC
  5
84
330
4F
100
AcDbEntity
  8
TORO
 62
     2
100
AcDbCircle
 10
29.25412916873893
 20
124.1813800445275
 30
0.0
 40
4.471635762659074
100
AcDbArc
 50
174.0505655308661
 51
241.147779927103
  0
CIRCLE
  5
85
330
4F
100
AcDbEntity
  8
TORO
 62
     2
100
AcDbCircle
 10
39.69223886727241
 20
136.6327406042805
 30
0.0
 40
4.755963302752293
  0
CIRCLE
  5
86
330
4F
100
AcDbEntity
  8
TORO
100
AcDbCircle
 10
-39.8294021023743
 20
136.6298730271979
 30
0.0
 40
4.901674714231836
  0
CIRCLE
  5
87
330
4F
100
AcDbEntity
  8
TORO
 62
     2
100
AcDbCircle
 10
-20.41858156494924
 20
143.1270563625786
 30
0.0
 40
4.821768463865117
  0
CIRCLE
  5
88
330
4F
100
AcDbEntity
  8
TORO
 62
     2
100
AcDbCircle
 10
-10.29696338377494
 20
144.74983964013
 30
0.0
 40
4.781492388528936
  0
LINE
  5
89
330
4F
100
AcDbEntity
  8
TORO
100
AcDbLine
 10
-39.65917245498615
 20
131.731155146845
 30
0.0
 11
-37.95157439904824
 21
130.0680414690319
 31
0.0
  0
LINE
  5
8A
330
4F
100
AcDbEntity
  8
TORO
100
AcDbLine
 10
-37.95157439904824
 20
130.0680414690319
 30
0.0
 11
-32.89249145346957
 21
118.5628511512282
 31
0.0
  0
LINE
  5
8B
330
4F
100
AcDbEntity
  8
TORO
100
AcDbLine
 10
-32.89249145346957
 20
118.5628511512282
 30
0.0
 11
-27.23483212343769
 21
120.2648207709665
 31
0.0
  0
LINE
  5
8C
330
4F
100
AcDbEntity
  8
TORO
100
AcDbLine
 10
-21.52926959553724
 20
90.67260988595808
 30
0.0
 11
-15.95587510012547
 21
88.22031630797619
 31
0.0
  0
LINE
  5
8D
330
4F
100
AcDbEntity
  8
TORO
100
AcDbLine
 10
-15.95587510012547
 20
88.22031630797619
 30
0.0
 11
-11.34853565058392
 21
87.32857318871038
 31
0.0
  0
LINE
  5
8E
330
4F
100
AcDbEntity
  8
TORO
100
AcDbLine
 10
-14.12575038682234
 20
87.89655627357205
 30
0.0
 11
-10.32805292409284
 21
88.32056000063676
 31
0.0
  0
LINE
  5
8F
330
4F
100
AcDbEntity
  8
TORO
100
AcDbLine
 10
-10.32805292409284
 20
88.32056000063676
 30
0.0
 11
-2.155434303107995
 21
88.07977194157729
 31
0.0
  0
LINE
  5
90
330
4F
100
AcDbEntity
  8
TORO
100
AcDbLine
 10
-2.155434303107995
 20
88.07977194157729
 30
0.0
 11
4.341053655608902
 21
84.42382834926092
 31
0.0
  0
LINE
  5
91
330
4F
100
AcDbEntity
  8
TORO
100
AcDbLine
 10
4.341053655608902
 20
84.42382834926092
 30
0.0
 11
8.424048925103306
 21
76.95422184123299
 31
0.0
  0
LINE
  5
92
330
4F
100
AcDbEntity
  8
TORO
100
AcDbLine
 10
8.424048925103306
 20
76.95422184123299
 30
0.0
 11
13.19709042453041
 21
60.88629967953647
 31
0.0
  0
LINE
  5
93
330
4F
100
AcDbEntity
  8
TORO
100
AcDbLine
 10
13.19709042453041
 20
60.88629967953647
 30
0.0
 11
16.27261723072343
 21
55.45001455912234
 31
0.0
  0
LINE
  5
94
330
4F
100
AcDbEntity
  8
TORO
100
AcDbLine
 10
16.27261723072343
 20
55.45001455912234
 30
0.0
 11
21.076234991619
 21
52.45150896852601
 31
0.0
  0
LINE
  5
95
330
4F
100
AcDbEntity
  8
TORO
100
AcDbLine
 10
21.076234991619
 20
52.45150896852601
 30
0.0
 11
22.86126939528867
 21
53.45433293641645
 31
0.0
  0
LINE
  5
96
330
4F
100
AcDbEntity
  8
TORO
100
AcDbLine
 10
22.86126939528867
 20
53.45433293641645
 30
0.0
 11
22.46648728519585
 21
56.4798346565999
 31
0.0
  0
LINE
  5
97
330
4F
100
AcDbEntity
  8
TORO
100
AcDbLine
 10
22.46648728519585
 20
56.4798346565999
 30
0.0
 11
18.87242191822315
 21
65.11975724834292
 31
0.0
  0
LINE
  5
98
330
4F
100
AcDbEntity
  8
TORO
100
AcDbLine
 10
18.87242191822315
 20
65.11975724834292
 30
0.0
 11
19.56522581730587
 21
69.02616493182904
 31
0.0
  0
LINE
  5
99
330
4F
100
AcDbEntity
  8
TORO
100
AcDbLine
 10
19.56522581730587
 20
69.02616493182904
 30
0.0
 11
21.70585440102104
 21
70.22023567437509
 31
0.0
  0
LINE
  5
9A
330
4F
100
AcDbEntity
  8
TORO
100
AcDbLine
 10
21.70585440102104
 20
70.22023567437509
 30
0.0
 11
26.77087016937003
 21
69.94301735442104
 31
0.0
  0
LINE
  5
9B
330
4F
100
AcDbEntity
  8
TORO
100
AcDbLine
 10
26.77087016937003
 20
69.94301735442104
 30
0.0
 11
31.72542564076451
 21
67.69804057792658
 31
0.0
  0
LINE
  5
9C
330
4F
100
AcDbEntity
  8
TORO
100
AcDbLine
 10
31.72542564076451
 20
67.69804057792658
 30
0.0
 11
28.06975494957385
 21
62.94730088401917
 31
0.0
  0
LINE
  5
9D
330
4F
100
AcDbEntity
  8
TORO
100
AcDbLine
 10
28.06975494957385
 20
62.94730088401917
 30
0.0
 11
24.77965092678573
 21
63.49546319787055
 31
0.0
  0
LINE
  5
9E
330
4F
100
AcDbEntity
  8
TORO
100
AcDbLine
 10
24.77965092678573
 20
63.49546319787055
 30
0.0
 11
24.23130042328626
 21
64.77450859685717
 31
0.0
  0
LINE
  5
9F
330
4F
100
AcDbEntity
  8
TORO
100
AcDbLine
 10
24.23130042328626
 20
64.77450859685717
 30
0.0
 11
24.86962662005817
 21
68.53113912907748
 31
0.0
  0
LINE
  5
A0
330
4F
100
AcDbEntity
  8
TORO
100
AcDbLine
 10
24.86962662005817
 20
68.53113912907748
 30
0.0
 11
21.73894643083713
 21
68.78765074031526
 31
0.0
  0
LINE
  5
A1
330
4F
100
AcDbEntity
  8
TORO
100
AcDbLine
 10
21.73894643083713
 20
68.78765074031526
 30
0.0
 11
20.45696893657123
 21
67.14049979421452
 31
0.0
  0
LINE
  5
A2
330
4F
100
AcDbEntity
  8
TORO
100
AcDbLine
 10
20.45696893657123
 20
67.14049979421452
 30
0.0
 11
20.46703200996626
 21
64.2442698630216
 31
0.0
  0
LINE
  5
A3
330
4F
100
AcDbEntity
  8
TORO
100
AcDbLine
 10
20.46703200996626
 20
64.2442698630216
 30
0.0
 11
24.3410733660453
 21
58.17971997770064
 31
0.0
  0
LINE
  5
A4
330
4F
100
AcDbEntity
  8
TORO
100
AcDbLine
 10
24.3410733660453
 20
58.17971997770064
 30
0.0
 11
26.9716478356554
 21
53.61572915201304
 31
0.0
  0
LINE
  5
A5
330
4F
100
AcDbEntity
  8
TORO
100
AcDbLine
 10
26.9716478356554
 20
53.61572915201304
 30
0.0
 11
26.54745058794879
 21
50.02398603274696
 31
0.0
  0
LINE
  5
A6
330
4F
100
AcDbEntity
  8
TORO
100
AcDbLine
 10
26.54745058794879
 20
50.02398603274696
 30
0.0
 11
22.90309065966928
 21
47.97333702117344
 31
0.0
  0
LINE
  5
A7
330
4F
100
AcDbEntity
  8
TORO
100
AcDbLine
 10
22.90309065966928
 20
47.97333702117344
 30
0.0
 11
23.37966281558556
 21
45.43948201898501
 31
0.0
  0
LINE
  5
A8
330
4F
100
AcDbEntity
  8
TORO
100
AcDbLine
 10
23.37966281558556
 20
45.43948201898501
 30
0.0
 11
19.81796377602222
 21
38.83268729421479
 31
0.0
  0
LINE
  5
A9
330
4F
100
AcDbEntity
  8
TORO
100
AcDbLine
 10
19.81796377602222
 20
38.83268729421479
 30
0.0
 11
17.24504338574418
 21
37.00007762524535
 31
0.0
  0
LINE
  5
AA
330
4F
100
AcDbEntity
  8
TORO
100
AcDbLine
 10
17.24504338574418
 20
37.00007762524535
 30
0.0
 11
17.97951767510358
 21
36.02663798228832
 31
0.0
  0
LINE
  5
AB
330
4F
100
AcDbEntity
  8
TORO
100
AcDbLine
 10
17.97951767510358
 20
36.02663798228832
 30
0.0
 11
19.46923957877516
 21
33.90139428962766
 31
0.0
  0
LINE
  5
AC
330
4F
100
AcDbEntity
  8
TORO
100
AcDbLine
 10
19.46923957877516
 20
33.90139428962766
 30
0.0
 11
15.52915930354584
 21
31.29621940430616
 31
0.0
  0
LINE
  5
AD
330
4F
100
AcDbEntity
  8
TORO
100
AcDbLine
 10
15.52915930354584
 20
31.29621940430616
 30
0.0
 11
12.48701480813224
 21
24.81627746049935
 31
0.0
  0
LINE
  5
AE
330
4F
100
AcDbEntity
  8
TORO
100
AcDbLine
 10
12.48701480813224
 20
24.81627746049935
 30
0.0
 11
10.70531816462699
 21
24.39322101890866
 31
0.0
  0
LINE
  5
AF
330
4F
100
AcDbEntity
  8
TORO
100
AcDbLine
 10
10.70531816462699
 20
24.39322101890866
 30
0.0
 11
10.70701194115872
 21
23.23414945017749
 31
0.0
  0
LINE
  5
B0
330
4F
100
AcDbEntity
  8
TORO
100
AcDbLine
 10
10.70701194115872
 20
23.23414945017749
 30
0.0
 11
7.207433027741444
 21
21.31887565430634
 31
0.0
  0
LINE
  5
B1
330
4F
100
AcDbEntity
  8
TORO
100
AcDbLine
 10
7.207433027741444
 20
21.31887565430634
 30
0.0
 11
6.54299804751201
 21
21.25951823570538
 31
0.0
  0
LINE
  5
B2
330
4F
100
AcDbEntity
  8
TORO
100
AcDbLine
 10
6.54299804751201
 20
21.25951823570538
 30
0.0
 11
6.789767101708548
 21
25.13258695017839
 31
0.0
  0
LINE
  5
B3
330
4F
100
AcDbEntity
  8
TORO
100
AcDbLine
 10
6.789767101708548
 20
25.13258695017839
 30
0.0
 11
11.61923583742464
 21
30.05756456923507
 31
0.0
  0
LINE
  5
B4
330
4F
100
AcDbEntity
  8
TORO
100
AcDbLine
 10
11.61923583742464
 20
30.05756456923507
 30
0.0
 11
13.47164783565449
 21
32.98178419788428
 31
0.0
  0
LINE
  5
B5
330
4F
100
AcDbEntity
  8
TORO
100
AcDbLine
 10
13.47164783565449
 20
32.98178419788428
 30
0.0
 11
11.68506526684677
 21
35.61366493182914
 31
0.0
  0
LINE
  5
B6
330
4F
100
AcDbEntity
  8
TORO
100
AcDbLine
 10
11.68506526684677
 20
35.61366493182914
 30
0.0
 11
4.998419087088677
 21
39.65098932976571
 31
0.0
  0
LINE
  5
B7
330
4F
100
AcDbEntity
  8
TORO
100
AcDbLine
 10
4.998419087088677
 20
39.65098932976571
 30
0.0
 11
1.931708105052905
 21
39.92448549961745
 31
0.0
  0
LINE
  5
B8
330
4F
100
AcDbEntity
  8
TORO
100
AcDbLine
 10
1.931708105052905
 20
39.92448549961745
 30
0.0
 11
1.748924770851601
 21
42.29985516683541
 31
0.0
  0
LINE
  5
B9
330
4F
100
AcDbEntity
  8
TORO
100
AcDbLine
 10
1.748924770851601
 20
42.29985516683541
 30
0.0
 11
0.8375129650764623
 21
42.4467830146156
 31
0.0
  0
LINE
  5
BA
330
4F
100
AcDbEntity
  8
TORO
100
AcDbLine
 10
0.8375129650764623
 20
42.4467830146156
 30
0.0
 11
0.1636203127195586
 21
39.47169245476516
 31
0.0
  0
LINE
  5
BB
330
4F
100
AcDbEntity
  8
TORO
100
AcDbLine
 10
0.1636203127195586
 20
39.47169245476516
 30
0.0
 11
-1.539361338657272
 21
38.95150896852647
 31
0.0
  0
LINE
  5
BC
330
4F
100
AcDbEntity
  8
TORO
100
AcDbLine
 10
-1.539361338657272
 20
38.95150896852647
 30
0.0
 11
-13.90184700379495
 21
39.12722571164613
 31
0.0
  0
LINE
  5
BD
330
4F
100
AcDbEntity
  8
TORO
100
AcDbLine
 10
-13.90184700379495
 20
39.12722571164613
 30
0.0
 11
-14.98440147627161
 21
38.09150323458153
 31
0.0
  0
LINE
  5
BE
330
4F
100
AcDbEntity
  8
TORO
100
AcDbLine
 10
-14.98440147627161
 20
38.09150323458153
 30
0.0
 11
-16.71221302109421
 21
38.09727778677944
 31
0.0
  0
LINE
  5
BF
330
4F
100
AcDbEntity
  8
TORO
100
AcDbLine
 10
-16.71221302109421
 20
38.09727778677944
 30
0.0
 11
-17.25764008005671
 21
37.03928312276912
 31
0.0
  0
LINE
  5
C0
330
4F
100
AcDbEntity
  8
TORO
100
AcDbLine
 10
-17.25764008005671
 20
37.03928312276912
 30
0.0
 11
-24.26719964140966
 21
37.52410071164604
 31
0.0
  0
LINE
  5
C1
330
4F
100
AcDbEntity
  8
TORO
100
AcDbLine
 10
-24.26719964140966
 20
37.52410071164604
 30
0.0
 11
-23.04298805883991
 21
39.04246367036149
 31
0.0
  0
LINE
  5
C2
330
4F
100
AcDbEntity
  8
TORO
100
AcDbLine
 10
-23.04298805883991
 20
39.04246367036149
 30
0.0
 11
-17.30403665402446
 21
41.10858680682895
 31
0.0
  0
LINE
  5
C3
330
4F
100
AcDbEntity
  8
TORO
100
AcDbLine
 10
-17.30403665402446
 20
41.10858680682895
 30
0.0
 11
-7.526890008381542
 21
42.02964830338942
 31
0.0
  0
LINE
  5
C4
330
4F
100
AcDbEntity
  8
TORO
100
AcDbLine
 10
-7.526890008381542
 20
42.02964830338942
 30
0.0
 11
-7.166554572602308
 21
45.7719504822885
 31
0.0
  0
LINE
  5
C5
330
4F
100
AcDbEntity
  8
TORO
100
AcDbLine
 10
-7.166554572602308
 20
45.7719504822885
 30
0.0
 11
-5.397388861593299
 21
48.30552272999421
 31
0.0
  0
LINE
  5
C6
330
4F
100
AcDbEntity
  8
TORO
100
AcDbLine
 10
-5.397388861593299
 20
48.30552272999421
 30
0.0
 11
-1.162431507808378
 21
48.53774750063667
 31
0.0
  0
LINE
  5
C7
330
4F
100
AcDbEntity
  8
TORO
100
AcDbLine
 10
-1.162431507808378
 20
48.53774750063667
 30
0.0
 11
-6.607225403781808
 21
55.23210077625353
 31
0.0
  0
LINE
  5
C8
330
4F
100
AcDbEntity
  8
TORO
100
AcDbLine
 10
-6.607225403781808
 20
55.23210077625353
 30
0.0
 11
-8.376058586363342
 21
56.26618786760946
 31
0.0
  0
LINE
  5
C9
330
4F
100
AcDbEntity
  8
TORO
100
AcDbLine
 10
-8.376058586363342
 20
56.26618786760946
 30
0.0
 11
-11.35230930310763
 21
60.29112694444347
 31
0.0
  0
LINE
  5
CA
330
4F
100
AcDbEntity
  8
TORO
100
AcDbLine
 10
-11.35230930310763
 20
60.29112694444347
 30
0.0
 11
-17.25976880712051
 21
61.69487730281571
 31
0.0
  0
LINE
  5
CB
330
4F
100
AcDbEntity
  8
TORO
100
AcDbLine
 10
-17.25976880712051
 20
61.69487730281571
 30
0.0
 11
-21.10995874404807
 21
64.67799800235662
 31
0.0
  0
LINE
  5
CC
330
4F
100
AcDbEntity
  8
TORO
100
AcDbLine
 10
-21.10995874404807
 20
64.67799800235662
 30
0.0
 11
-23.01550812764799
 21
67.06618786760873
 31
0.0
  0
LINE
  5
CD
330
4F
100
AcDbEntity
  8
TORO
100
AcDbLine
 10
-23.01550812764799
 20
67.06618786760873
 30
0.0
 11
-26.1921494693911
 21
68.23156917494862
 31
0.0
  0
LINE
  5
CE
330
4F
100
AcDbEntity
  8
TORO
100
AcDbLine
 10
-26.1921494693911
 20
68.23156917494862
 30
0.0
 11
-29.77789344874873
 21
68.15609612448998
 31
0.0
  0
LINE
  5
CF
330
4F
100
AcDbEntity
  8
TORO
100
AcDbLine
 10
-29.77789344874873
 20
68.15609612448998
 30
0.0
 11
-31.07257073515802
 21
66.6354592982284
 31
0.0
  0
LINE
  5
D0
330
4F
100
AcDbEntity
  8
TORO
100
AcDbLine
 10
-31.07257073515802
 20
66.6354592982284
 30
0.0
 11
-35.76309987076729
 21
66.75345850981148
 31
0.0
  0
LINE
  5
D1
330
4F
100
AcDbEntity
  8
TORO
100
AcDbLine
 10
-35.76309987076729
 20
66.75345850981148
 30
0.0
 11
-33.67186743097409
 21
69.57494109295339
 31
0.0
  0
LINE
  5
D2
330
4F
100
AcDbEntity
  8
TORO
100
AcDbLine
 10
-33.67186743097409
 20
69.57494109295339
 30
0.0
 11
-27.05167140173126
 21
70.20441536187536
 31
0.0
  0
LINE
  5
D3
330
4F
100
AcDbEntity
  8
TORO
100
AcDbLine
 10
-27.05167140173126
 20
70.20441536187536
 30
0.0
 11
-22.87965663682189
 21
69.5081764713932
 31
0.0
  0
LINE
  5
D4
330
4F
100
AcDbEntity
  8
TORO
100
AcDbLine
 10
-22.87965663682189
 20
69.5081764713932
 30
0.0
 11
-21.98462366663898
 21
70.76823775292996
 31
0.0
  0
LINE
  5
D5
330
4F
100
AcDbEntity
  8
TORO
100
AcDbLine
 10
-21.98462366663898
 20
70.76823775292996
 30
0.0
 11
-20.91808302730397
 21
70.44104272712775
 31
0.0
  0
LINE
  5
D6
330
4F
100
AcDbEntity
  8
TORO
100
AcDbLine
 10
-20.91808302730397
 20
70.44104272712775
 30
0.0
 11
-15.1384922876241
 21
67.08912006371019
 31
0.0
  0
LINE
  5
D7
330
4F
100
AcDbEntity
  8
TORO
100
AcDbLine
 10
-15.1384922876241
 20
67.08912006371019
 30
0.0
 11
-13.29922372397914
 21
68.23350438137004
 31
0.0
  0
LINE
  5
D8
330
4F
100
AcDbEntity
  8
TORO
100
AcDbLine
 10
-13.29922372397914
 20
68.23350438137004
 30
0.0
 11
-14.02376500838227
 21
74.69554566577471
 31
0.0
  0
LINE
  5
D9
330
4F
100
AcDbEntity
  8
TORO
100
AcDbLine
 10
-14.02376500838227
 20
74.69554566577471
 30
0.0
 11
-14.61826042122584
 21
75.29004107861829
 31
0.0
  0
LINE
  5
DA
330
4F
100
AcDbEntity
  8
TORO
100
AcDbLine
 10
-14.61826042122584
 20
75.29004107861829
 30
0.0
 11
-14.96325950653272
 21
74.10105025293024
 31
0.0
  0
LINE
  5
DB
330
4F
100
AcDbEntity
  8
TORO
100
AcDbLine
 10
-14.96325950653272
 20
74.10105025293024
 30
0.0
 11
-16.40174665975837
 21
75.14141722540762
 31
0.0
  0
LINE
  5
DC
330
4F
100
AcDbEntity
  8
TORO
100
AcDbLine
 10
-16.40174665975837
 20
75.14141722540762
 30
0.0
 11
-17.59073748545136
 21
75.43866493183255
 31
0.0
  0
LINE
  5
DD
330
4F
100
AcDbEntity
  8
TORO
100
AcDbLine
 10
-17.59073748545136
 20
75.43866493183255
 30
0.0
 11
-18.00215218416701
 21
76.33301057877725
 31
0.0
  0
LINE
  5
DE
330
4F
100
AcDbEntity
  8
TORO
100
AcDbLine
 10
-18.00215218416701
 20
76.33301057877725
 30
0.0
 11
-16.25312280654771
 21
81.6808667666919
 31
0.0
  0
LINE
  5
DF
330
4F
100
AcDbEntity
  8
TORO
100
AcDbLine
 10
-16.25312280654771
 20
81.6808667666919
 30
0.0
 11
-17.29348977902418
 21
81.97811447311369
 31
0.0
  0
LINE
  5
E0
330
4F
100
AcDbEntity
  8
TORO
100
AcDbLine
 10
-17.29348977902418
 20
81.97811447311369
 30
0.0
 11
-17.4421136322355
 21
82.64692181256405
 31
0.0
  0
LINE
  5
E1
330
4F
100
AcDbEntity
  8
TORO
100
AcDbLine
 10
-17.4421136322355
 20
82.64692181256405
 30
0.0
 11
-17.63023969801861
 21
83.36110414818904
 31
0.0
  0
LINE
  5
E2
330
4F
100
AcDbEntity
  8
TORO
100
AcDbLine
 10
-17.63023969801861
 20
83.36110414818904
 30
0.0
 11
-17.44211363223485
 21
83.91022456485689
 31
0.0
  0
LINE
  5
E3
330
4F
100
AcDbEntity
  8
TORO
100
AcDbLine
 10
-17.44211363223485
 20
83.91022456485689
 30
0.0
 11
-20.00231654298665
 21
85.42195431404094
 31
0.0
  0
LINE
  5
E4
330
4F
100
AcDbEntity
  8
TORO
100
AcDbLine
 10
-20.00231654298665
 20
85.42195431404094
 30
0.0
 11
-21.28180138508253
 21
86.51827894174374
 31
0.0
  0
LINE
  5
E5
330
4F
100
AcDbEntity
  8
TORO
100
AcDbLine
 10
-21.28180138508253
 20
86.51827894174374
 30
0.0
 11
-21.99437226898908
 21
88.74180605854917
 31
0.0
  0
LINE
  5
E6
330
4F
100
AcDbEntity
  8
TORO
100
AcDbLine
 10
-21.99437226898908
 20
88.74180605854917
 30
0.0
 11
-22.01293572367888
 21
90.17269400794834
 31
0.0
  0
LINE
  5
E7
330
4F
100
AcDbEntity
  8
TORO
100
AcDbLine
 10
-22.01293572367888
 20
89.25909015152933
 30
0.0
 11
-20.2846118228872
 21
87.45591567275415
 31
0.0
  0
LINE
  5
E8
330
4F
100
AcDbEntity
  8
TORO
100
AcDbLine
 10
-20.2846118228872
 20
87.45591567275415
 30
0.0
 11
-17.25660105406268
 21
86.17499236294225
 31
0.0
  0
LINE
  5
E9
330
4F
100
AcDbEntity
  8
TORO
100
AcDbLine
 10
-17.25660105406268
 20
86.17499236294225
 30
0.0
 11
-15.39197565738504
 21
85.93688905258431
 31
0.0
  0
LINE
  5
EA
330
4F
100
AcDbEntity
  8
TORO
100
AcDbLine
 10
-15.39197565738504
 20
85.93688905258431
 30
0.0
 11
-17.47857969818642
 21
84.40741483564625
 31
0.0
  0
LINE
  5
EB
330
4F
100
AcDbEntity
  8
TORO
100
AcDbLine
 10
-8.524682439574007
 20
59.09004107861846
 30
0.0
 11
-7.632939320309105
 21
55.67169245476498
 31
0.0
  0
LINE
  5
EC
330
4F
100
AcDbEntity
  8
TORO
100
AcDbLine
 10
-6.146700788198359
 20
57.90105025293041
 30
0.0
 11
-4.700882596958173
 21
52.88825958462531
 31
0.0
  0
LINE
  5
ED
330
4F
100
AcDbEntity
  8
TORO
100
AcDbLine
 10
-0.6476182193905516
 20
48.53774750063667
 30
0.0
 11
1.730363431985097
 21
45.86251814283833
 31
0.0
  0
LINE
  5
EE
330
4F
100
AcDbEntity
  8
TORO
100
AcDbLine
 10
1.730363431985097
 20
45.86251814283833
 30
0.0
 11
6.189079028315518
 21
43.48453649146222
 31
0.0
  0
LINE
  5
EF
330
4F
100
AcDbEntity
  8
TORO
100
AcDbLine
 10
6.189079028315518
 20
43.48453649146222
 30
0.0
 11
5.307786023727658
 21
41.7320135556829
 31
0.0
  0
LINE
  5
F0
330
4F
100
AcDbEntity
  8
TORO
100
AcDbLine
 10
5.307786023727658
 20
41.7320135556829
 30
0.0
 11
5.121218926376981
 21
39.64003776442405
 31
0.0
  0
LINE
  5
F1
330
4F
100
AcDbEntity
  8
TORO
100
AcDbLine
 10
-11.35230930310763
 20
60.29112694444347
 30
0.0
 11
-7.430371588083744
 21
60.72296825751755
 31
0.0
  0
LINE
  5
F2
330
4F
100
AcDbEntity
  8
TORO
100
AcDbLine
 10
-7.430371588083744
 20
60.72296825751755
 30
0.0
 11
-5.12481503705203
 21
61.61146990602628
 31
0.0
  0
LINE
  5
F3
330
4F
100
AcDbEntity
  8
TORO
100
AcDbLine
 10
-6.392133342670149
 20
61.00163798228823
 30
0.0
 11
-1.242113632235032
 21
61.02215117036166
 31
0.0
  0
LINE
  5
F4
330
4F
100
AcDbEntity
  8
TORO
100
AcDbLine
 10
-1.242113632235032
 20
61.02215117036166
 30
0.0
 11
0.3927487530859253
 21
62.06251814283814
 31
0.0
  0
LINE
  5
F5
330
4F
100
AcDbEntity
  8
TORO
100
AcDbLine
 10
-23.9815631735205
 20
67.41297685843483
 30
0.0
 11
-26.53293932030783
 21
62.38453649146231
 31
0.0
  0
LINE
  5
F6
330
4F
100
AcDbEntity
  8
TORO
100
AcDbLine
 10
-26.53293932030783
 20
62.38453649146231
 30
0.0
 11
-25.57275745375963
 21
58.91554335582362
 31
0.0
  0
LINE
  5
F7
330
4F
100
AcDbEntity
  8
TORO
100
AcDbLine
 10
-25.57275745375963
 20
58.91554335582362
 30
0.0
 11
-22.41926122204612
 21
61.89585577815238
 31
0.0
  0
LINE
  5
F8
330
4F
100
AcDbEntity
  8
TORO
100
AcDbLine
 10
-22.41926122204612
 20
61.89585577815238
 30
0.0
 11
-23.44318734818035
 21
62.30024453038045
 31
0.0
  0
LINE
  5
F9
330
4F
100
AcDbEntity
  8
TORO
100
AcDbLine
 10
-23.44318734818035
 20
62.30024453038045
 30
0.0
 11
-23.30387043028941
 21
63.93302337489195
 31
0.0
  0
LINE
  5
FA
330
4F
100
AcDbEntity
  8
TORO
100
AcDbLine
 10
-23.30387043028941
 20
63.93302337489195
 30
0.0
 11
-22.64394849462087
 21
66.22398603274678
 31
0.0
  0
LINE
  5
FB
330
4F
100
AcDbEntity
  8
TORO
100
AcDbLine
 10
-22.51390262306131
 20
69.41630254650817
 30
0.0
 11
-14.54394849462096
 21
65.33224291348097
 31
0.0
  0
LINE
  5
FC
330
4F
100
AcDbEntity
  8
TORO
100
AcDbLine
 10
-14.54394849462096
 20
65.33224291348097
 30
0.0
 11
-9.317342990033921
 21
66.19921539054485
 31
0.0
  0
LINE
  5
FD
330
4F
100
AcDbEntity
  8
TORO
100
AcDbLine
 10
-9.317342990033921
 20
66.19921539054485
 30
0.0
 11
-8.821930145995338
 21
67.85884841806773
 31
0.0
  0
LINE
  5
FE
330
4F
100
AcDbEntity
  8
TORO
100
AcDbLine
 10
-9.131563173520135
 20
66.38654337219714
 30
0.0
 11
-10.89645422823514
 21
69.00252268789245
 31
0.0
  0
LINE
  5
FF
330
4F
100
AcDbEntity
  8
TORO
100
AcDbLine
 10
-10.89645422823514
 20
69.00252268789245
 30
0.0
 11
-10.4567925313198
 21
71.57444474833801
 31
0.0
  0
LINE
  5
100
330
4F
100
AcDbEntity
  8
TORO
100
AcDbLine
 10
-10.4567925313198
 20
71.57444474833801
 30
0.0
 11
-8.524682439570836
 21
73.20930713366687
 31
0.0
  0
LINE
  5
101
330
4F
100
AcDbEntity
  8
TORO
100
AcDbLine
 10
-8.524682439570836
 20
73.20930713366687
 30
0.0
 11
-6.963025871253787
 21
75.06816819067807
 31
0.0
  0
LINE
  5
102
330
4F
100
AcDbEntity
  8
TORO
100
AcDbLine
 10
-6.963025871253787
 20
75.06816819067807
 30
0.0
 11
-3.023017626756534
 21
76.51128551699
 31
0.0
  0
LINE
  5
103
330
4F
100
AcDbEntity
  8
TORO
100
AcDbLine
 10
-3.023017626756534
 20
76.51128551699
 30
0.0
 11
0.0271084930837873
 21
80.33640610115295
 31
0.0
  0
LINE
  5
104
330
4F
100
AcDbEntity
  8
TORO
100
AcDbLine
 10
0.0271084930837873
 20
80.33640610115295
 30
0.0
 11
0.2441248998752599
 21
84.20747227127867
 31
0.0
  0
LINE
  5
105
330
4F
100
AcDbEntity
  8
TORO
100
AcDbLine
 10
-16.40174665975847
 20
75.14141722540769
 30
0.0
 11
-15.65862739370231
 21
76.77627961072857
 31
0.0
  0
LINE
  5
106
330
4F
100
AcDbEntity
  8
TORO
100
AcDbLine
 10
-15.21275583406941
 20
80.93774750063676
 30
0.0
 11
-15.30773980756976
 21
82.65767506433439
 31
0.0
  0
LINE
  5
107
330
4F
100
AcDbEntity
  8
TORO
100
AcDbLine
 10
-15.30773980756976
 20
82.65767506433439
 30
0.0
 11
-13.72651730196003
 21
82.8698575923795
 31
0.0
  0
LINE
  5
108
330
4F
100
AcDbEntity
  8
TORO
100
AcDbLine
 10
-13.72651730196003
 20
82.8698575923795
 30
0.0
 11
-15.22874907716244
 21
81.22734603620989
 31
0.0
  0
LINE
  5
109
330
4F
100
AcDbEntity
  8
TORO
100
AcDbLine
 10
-11.34853565058392
 20
84.05884841806756
 30
0.0
 11
-6.146700788184841
 21
86.73407777588918
 31
0.0
  0
LINE
  5
10A
330
4F
100
AcDbEntity
  8
TORO
100
AcDbLine
 10
-6.146700788184841
 20
86.73407777588918
 30
0.0
 11
-11.58511959968747
 21
85.7027042482616
 31
0.0
  0
LINE
  5
10B
330
4F
100
AcDbEntity
  8
TORO
100
AcDbLine
 10
-12.24027876984974
 20
86.43683006944412
 30
0.0
 11
-6.443948494622349
 21
87.32857318871095
 31
0.0
  0
LINE
  5
10C
330
4F
100
AcDbEntity
  8
TORO
100
AcDbLine
 10
-14.07282249117952
 20
74.49263927242601
 30
0.0
 11
-9.388027653933484
 21
75.80005695046793
 31
0.0
  0
LINE
  5
10D
330
4F
100
AcDbEntity
  8
TORO
100
AcDbLine
 10
-9.388027653933484
 20
75.80005695046793
 30
0.0
 11
-10.45679253131811
 21
77.96527043641617
 31
0.0
  0
LINE
  5
10E
330
4F
100
AcDbEntity
  8
TORO
100
AcDbLine
 10
-9.388027653937115
 20
75.8000569504643
 30
0.0
 11
-7.930187026735989
 21
77.26331805835696
 31
0.0
  0
LINE
  5
10F
330
4F
100
AcDbEntity
  8
TORO
100
AcDbLine
 10
-7.930187026735989
 20
77.26331805835696
 30
0.0
 11
-8.227434733152676
 21
79.45150896852647
 31
0.0
  0
LINE
  5
110
330
4F
100
AcDbEntity
  8
TORO
100
AcDbLine
 10
-7.632939320309108
 20
76.85059153733391
 30
0.0
 11
-6.146700788198359
 21
79.45150896852647
 31
0.0
  0
LINE
  5
111
330
4F
100
AcDbEntity
  8
TORO
100
AcDbLine
 10
-6.146700788198359
 20
79.45150896852647
 30
0.0
 11
-6.592572347831719
 21
82.57260988595817
 31
0.0
  0
LINE
  5
112
330
4F
100
AcDbEntity
  8
TORO
100
AcDbLine
 10
-13.28064574232667
 20
73.50655484008621
 30
0.0
 11
-9.416425558839819
 21
74.69554566577426
 31
0.0
  0
LINE
  5
113
330
4F
100
AcDbEntity
  8
TORO
100
AcDbLine
 10
-9.416425558839819
 20
74.69554566577426
 30
0.0
 11
-5.773191824638112
 21
77.46153817524832
 31
0.0
  0
LINE
  5
114
330
4F
100
AcDbEntity
  8
TORO
100
AcDbLine
 10
-5.773191824638112
 20
77.46153817524832
 30
0.0
 11
-3.918987593195966
 21
80.16894657438621
 31
0.0
  0
LINE
  5
115
330
4F
100
AcDbEntity
  8
TORO
100
AcDbLine
 10
-3.918987593195966
 20
80.16894657438621
 30
0.0
 11
-5.254957668932092
 21
82.8698575923795
 31
0.0
  0
LINE
  5
116
330
4F
100
AcDbEntity
  8
TORO
100
AcDbLine
 10
-12.83477418269331
 20
72.16894016118704
 30
0.0
 11
-6.889820054253505
 21
75.88453649146231
 31
0.0
  0
LINE
  5
117
330
4F
100
AcDbEntity
  8
TORO
100
AcDbLine
 10
-6.889820054253505
 20
75.88453649146231
 30
0.0
 11
-2.357603092061253
 21
77.91987260919632
 31
0.0
  0
LINE
  5
118
330
4F
100
AcDbEntity
  8
TORO
100
AcDbLine
 10
-2.357603092061253
 20
77.91987260919632
 30
0.0
 11
-0.7962420726021265
 21
82.72123373916839
 31
0.0
  0
LINE
  5
119
330
4F
100
AcDbEntity
  8
TORO
100
AcDbLine
 10
-36.18618799985017
 20
133.3506343949377
 30
0.0
 11
-36.00979188138035
 21
130.9735095274932
 31
0.0
  0
LINE
  5
11A
330
4F
100
AcDbEntity
  8
TORO
100
AcDbLine
 10
-36.00979188138035
 20
130.9735095274932
 30
0.0
 11
-32.19026916621215
 21
123.1125725144748
 31
0.0
  0
LINE
  5
11B
330
4F
100
AcDbEntity
  8
TORO
100
AcDbLine
 10
-27.47094296848627
 20
128.5369929540829
 30
0.0
 11
-29.1578530490292
 21
133.722604238565
 31
0.0
  0
LINE
  5
11C
330
4F
100
AcDbEntity
  8
TORO
100
AcDbLine
 10
-29.1578530490292
 20
133.722604238565
 30
0.0
 11
-30.20373330539269
 21
135.1470956129337
 31
0.0
  0
LINE
  5
11D
330
4F
100
AcDbEntity
  8
TORO
100
AcDbLine
 10
-27.04559387623909
 20
136.7934944421787
 30
0.0
 11
-27.12903635208795
 21
134.4112947067951
 31
0.0
  0
LINE
  5
11E
330
4F
100
AcDbEntity
  8
TORO
100
AcDbLine
 10
-27.12903635208795
 20
134.4112947067951
 30
0.0
 11
-25.31055196343232
 21
129.2703468815593
 31
0.0
  0
LINE
  5
11F
330
4F
100
AcDbEntity
  8
TORO
100
AcDbLine
 10
-25.31055196343232
 20
129.2703468815593
 30
0.0
 11
-25.31055196343232
 21
129.2703468815593
 31
0.0
  0
LINE
  5
120
330
4F
100
AcDbEntity
  8
TORO
100
AcDbLine
 10
-25.31055196343232
 20
129.2703468815593
 30
0.0
 11
-25.31055196343232
 21
129.2703468815593
 31
0.0
  0
LINE
  5
121
330
4F
100
AcDbEntity
  8
TORO
100
AcDbLine
 10
-18.90619541397609
 20
131.0596621678328
 30
0.0
 11
-20.01853777681254
 21
136.3981005613536
 31
0.0
  0
LINE
  5
122
330
4F
100
AcDbEntity
  8
TORO
100
AcDbLine
 10
-20.01853777681254
 20
136.3981005613536
 30
0.0
 11
-21.32569525824804
 21
138.3913836683826
 31
0.0
  0
LINE
  5
123
330
4F
100
AcDbEntity
  8
TORO
100
AcDbLine
 10
-17.58451493865011
 20
139.220783377223
 30
0.0
 11
-17.92680410111006
 21
136.8618267529277
 31
0.0
  0
LINE
  5
124
330
4F
100
AcDbEntity
  8
TORO
100
AcDbLine
 10
-17.92680410111006
 20
136.8618267529277
 30
0.0
 11
-16.67880709211886
 21
131.5534622704222
 31
0.0
  0
LINE
  5
125
330
4F
100
AcDbEntity
  8
TORO
100
AcDbLine
 10
-10.11771870855546
 20
132.6349201888433
 30
0.0
 11
-10.64227058011283
 21
138.0627259469397
 31
0.0
  0
LINE
  5
126
330
4F
100
AcDbEntity
  8
TORO
100
AcDbLine
 10
-10.64227058011283
 20
138.0627259469397
 30
0.0
 11
-11.72465625703213
 21
140.1864678032959
 31
0.0
  0
LINE
  5
127
330
4F
100
AcDbEntity
  8
TORO
100
AcDbLine
 10
-7.915418093578239
 20
140.6036472311478
 30
0.0
 11
-8.51248504064506
 21
138.2959753985765
 31
0.0
  0
LINE
  5
128
330
4F
100
AcDbEntity
  8
TORO
100
AcDbLine
 10
-8.51248504064506
 20
138.2959753985765
 30
0.0
 11
-7.849810755559699
 21
132.8832965049546
 31
0.0
  0
LINE
  5
129
330
4F
100
AcDbEntity
  8
TORO
100
AcDbLine
 10
-1.209984318379155
 20
133.2440414153352
 30
0.0
 11
-1.140510180839555
 21
138.6966924547651
 31
0.0
  0
LINE
  5
12A
330
4F
100
AcDbEntity
  8
TORO
100
AcDbLine
 10
-1.140510180839555
 20
138.6966924547651
 30
0.0
 11
-1.98525738448882
 21
140.9256474538556
 31
0.0
  0
LINE
  5
12B
330
4F
100
AcDbEntity
  8
TORO
100
AcDbLine
 10
1.846756976233026
 20
140.925647453854
 30
0.0
 11
1.002009772584187
 21
138.6966924547651
 31
0.0
  0
LINE
  5
12C
330
4F
100
AcDbEntity
  8
TORO
100
AcDbLine
 10
1.002009772584187
 20
138.6966924547651
 30
0.0
 11
1.071483910123788
 21
133.2440414153352
 31
0.0
  0
LINE
  5
12D
330
4F
100
AcDbEntity
  8
TORO
100
AcDbLine
 10
7.711310347305242
 20
132.8832965049546
 30
0.0
 11
8.373984632389692
 21
138.2959753985765
 31
0.0
  0
LINE
  5
12E
330
4F
100
AcDbEntity
  8
TORO
100
AcDbLine
 10
8.373984632389692
 20
138.2959753985765
 30
0.0
 11
7.776917685342867
 21
140.6036472311368
 31
0.0
  0
LINE
  5
12F
330
4F
100
AcDbEntity
  8
TORO
100
AcDbLine
 10
9.979218300300084
 20
132.6349201888433
 30
0.0
 11
10.50377017185701
 21
138.0627259469397
 31
0.0
  0
LINE
  5
130
330
4F
100
AcDbEntity
  8
TORO
100
AcDbLine
 10
10.50377017185701
 20
138.0627259469397
 30
0.0
 11
11.58615584877661
 21
140.1864678032957
 31
0.0
  0
LINE
  5
131
330
4F
100
AcDbEntity
  8
TORO
100
AcDbLine
 10
17.44601453039521
 20
139.220783377223
 30
0.0
 11
17.64953259751291
 21
136.0532322371819
 31
0.0
  0
LINE
  5
132
330
4F
100
AcDbEntity
  8
TORO
100
AcDbLine
 10
17.64953259751291
 20
136.0532322371819
 30
0.0
 11
16.54030668386394
 21
131.5534622704221
 31
0.0
  0
LINE
  5
133
330
4F
100
AcDbEntity
  8
TORO
100
AcDbLine
 10
18.76769500572163
 20
131.0596621678328
 30
0.0
 11
19.88003736855762
 21
136.3981005613536
 31
0.0
  0
LINE
  5
134
330
4F
100
AcDbEntity
  8
TORO
100
AcDbLine
 10
19.88003736855762
 20
136.3981005613536
 30
0.0
 11
21.1871948499931
 21
138.3913836683826
 31
0.0
  0
LINE
  5
135
330
4F
100
AcDbEntity
  8
TORO
100
AcDbLine
 10
26.9070934679832
 20
136.7934944421796
 30
0.0
 11
26.99053594383304
 21
134.4112947067951
 31
0.0
  0
LINE
  5
136
330
4F
100
AcDbEntity
  8
TORO
100
AcDbLine
 10
26.99053594383304
 20
134.4112947067951
 30
0.0
 11
25.1720515551765
 21
129.2703468815593
 31
0.0
  0
LINE
  5
137
330
4F
100
AcDbEntity
  8
TORO
100
AcDbLine
 10
27.3324425602309
 20
128.5369929540829
 30
0.0
 11
29.31955379585043
 21
134.2874448532552
 31
0.0
  0
LINE
  5
138
330
4F
100
AcDbEntity
  8
TORO
100
AcDbLine
 10
29.31955379585043
 20
134.2874448532552
 30
0.0
 11
30.53574332280778
 21
135.5617337950348
 31
0.0
  0
LINE
  5
139
330
4F
100
AcDbEntity
  8
TORO
100
AcDbLine
 10
32.05176875795724
 20
123.1125725144748
 30
0.0
 11
35.87129147312453
 21
130.9735095274932
 31
0.0
  0
LINE
  5
13A
330
4F
100
AcDbEntity
  8
TORO
 62
     2
100
AcDbLine
 10
35.87129147312453
 20
130.9735095274932
 30
0.0
 11
36.04768759159525
 21
133.3506343949377
 31
0.0
  0
LINE
  5
13B
330
4F
100
AcDbEntity
  8
TORO
100
AcDbLine
 10
39.52067204675156
 20
131.7311551468443
 30
0.0
 11
37.81307399079333
 21
130.0680414690319
 31
0.0
  0
LINE
  5
13C
330
4F
100
AcDbEntity
  8
TORO
100
AcDbLine
 10
37.81307399079333
 20
130.0680414690319
 30
0.0
 11
32.75399104521466
 21
118.5628511512282
 31
0.0
  0
LINE
  5
13D
330
4F
100
AcDbEntity
  8
TORO
100
AcDbLine
 10
32.75399104521466
 20
118.5628511512282
 30
0.0
 11
27.09633171719315
 21
120.2648207703619
 31
0.0
  0
ARC
  5
13E
330
4F
100
AcDbEntity
  8
TORO
 62
     2
100
AcDbCircle
 10
-30.70205936383775
 20
127.1919163133768
 30
0.0
 40
3.499906331558388
100
AcDbArc
 50
295.0013533251724
 51
22.60140099783067
  0
LINE
  5
13F
330
4F
100
AcDbEntity
  8
TORO
 62
     2
100
AcDbLine
 10
-29.22286011175538
 20
124.0199588889586
 30
0.0
 11
-32.19026916621215
 21
123.1125725144748
 31
0.0
  0
ARC
  5
140
330
4F
100
AcDbEntity
  8
TORO
 62
     2
100
AcDbCircle
 10
-22.10837368870463
 20
130.1650045246976
 30
0.0
 40
3.324809468460358
100
AcDbArc
 50
195.6098493169556
 51
15.60984931690075
  0
ARC
  5
141
330
4F
100
AcDbEntity
  8
TORO
 62
     2
100
AcDbCircle
 10
-13.39826290033741
 20
132.0941912296343
 30
0.0
 40
3.324809468460051
100
AcDbArc
 50
189.3598493169561
 51
9.359849316901506
  0
ARC
  5
142
330
4F
100
AcDbEntity
  8
TORO
 62
     2
100
AcDbCircle
 10
-4.529897536969515
 20
133.0636689601465
 30
0.0
 40
3.32480946846008
100
AcDbArc
 50
183.1098493169512
 51
3.109849316896284
  0
ARC
  5
143
330
4F
100
AcDbEntity
  8
TORO
 62
     2
100
AcDbCircle
 10
4.391397128714602
 20
133.0636689601465
 30
0.0
 40
3.324809468460534
100
AcDbArc
 50
176.8901506831041
 51
356.8901506830493
  0
ARC
  5
144
330
4F
100
AcDbEntity
  8
TORO
 62
     2
100
AcDbCircle
 10
13.25976249208227
 20
132.0941912296343
 30
0.0
 40
3.324809468460276
100
AcDbArc
 50
170.6401506830991
 51
350.6401506830445
  0
ARC
  5
145
330
4F
100
AcDbEntity
  8
TORO
 62
     2
100
AcDbCircle
 10
21.96987328044949
 20
130.1650045246976
 30
0.0
 40
3.324809468459701
100
AcDbArc
 50
164.3901506830961
 51
344.3901506830412
  0
ARC
  5
146
330
4F
100
AcDbEntity
  8
TORO
 62
     2
100
AcDbCircle
 10
30.5635589555826
 20
127.191916313377
 30
0.0
 40
3.49990633155851
100
AcDbArc
 50
157.3985990021742
 51
244.9986466748326
  0
LINE
  5
147
330
4F
100
AcDbEntity
  8
TORO
 62
     2
100
AcDbLine
 10
29.08435970350047
 20
124.0199588889586
 30
0.0
 11
32.05176875795724
 21
123.1125725144748
 31
0.0
  0
LINE
  5
148
330
4F
100
AcDbEntity
  8
TORO
100
AcDbLine
 10
-22.01293572367888
 20
90.17269400794834
 30
0.0
 11
-21.52926959553724
 21
90.67260988595808
 31
0.0
  0
ENDBLK
  5
14A
330
4F
100
AcDbEntity
  8
0
100
AcDbBlockEnd
  0
ENDSEC
  0
SECTION
  2
ENTITIES
  0
LINE
  5
1D
330
2
100
AcDbEntity
  8
0
 62
     3
100
AcDbLine
 10
3611.66404377648
 20
1448.383972535797
 30
0.0
 11
5511.664043776479
 21
1448.383972535797
 31
0.0
  0
LINE
  5
1E
330
2
100
AcDbEntity
  8
0
 62
     3
100
AcDbLine
 10
3611.664043776479
 20
2128.383972535802
 30
0.0
 11
5511.66404377648
 21
2128.383972535802
 31
0.0
  0
LINE
  5
1F
330
2
100
AcDbEntity
  8
0
 62
     3
100
AcDbLine
 10
3611.66404377648
 20
2698.383972535802
 30
0.0
 11
5511.66404377648
 21
2698.383972535801
 31
0.0
  0
LINE
  5
20
330
2
100
AcDbEntity
  8
0
 62
     3
100
AcDbLine
 10
3611.66404377648
 20
2178.383972535802
 30
0.0
 11
5511.66404377648
 21
2178.383972535802
 31
0.0
  0
LINE
  5
22
330
2
100
AcDbEntity
  8
0
 62
     1
100
AcDbLine
 10
3511.66404377648
 20
3468.383972535801
 30
0.0
 11
5611.66404377648
 21
3468.383972535801
 31
0.0
  0
LINE
  5
23
330
2
100
AcDbEntity
  8
0
 62
     1
100
AcDbLine
 10
3511.66404377648
 20
498.3839725358007
 30
0.0
 11
5611.66404377648
 21
498.3839725358007
 31
0.0
  0
LINE
  5
24
330
2
100
AcDbEntity
  8
0
 62
     1
100
AcDbLine
 10
3561.66404377648
 20
878.3839725357974
 30
0.0
 11
5161.66404377648
 21
878.3839725357974
 31
0.0
  0
LINE
  5
25
330
2
100
AcDbEntity
  8
0
 62
     1
100
AcDbLine
 10
3561.66404377648
 20
823.3839725357976
 30
0.0
 11
5161.66404377648
 21
823.3839725357976
 31
0.0
  0
LINE
  5
26
330
2
100
AcDbEntity
  8
0
 62
     1
100
AcDbLine
 10
3561.66404377648
 20
768.3839725357975
 30
0.0
 11
5161.66404377648
 21
768.3839725357975
 31
0.0
  0
LINE
  5
27
330
2
100
AcDbEntity
  8
0
 62
     1
100
AcDbLine
 10
3561.66404377648
 20
658.3839725357975
 30
0.0
 11
5161.66404377648
 21
658.3839725357975
 31
0.0
  0
LINE
  5
28
330
2
100
AcDbEntity
  8
0
 62
     1
100
AcDbLine
 10
3561.66404377648
 20
603.3839725357974
 30
0.0
 11
5161.66404377648
 21
603.3839725357974
 31
0.0
  0
LINE
  5
29
330
2
100
AcDbEntity
  8
0
 62
     1
100
AcDbLine
 10
3561.66404377648
 20
713.3839725357975
 30
0.0
 11
5161.66404377648
 21
713.3839725357975
 31
0.0
  0
LINE
  5
2A
330
2
100
AcDbEntity
  8
0
 62
     1
100
AcDbLine
 10
3561.66404377648
 20
948.3839725357976
 30
0.0
 11
5561.66404377648
 21
948.3839725357976
 31
0.0
  0
LINE
  5
2B
330
2
100
AcDbEntity
  8
0
 62
     1
100
AcDbLine
 10
3561.66404377648
 20
1298.383972535797
 30
0.0
 11
5561.66404377648
 21
1298.383972535797
 31
0.0
  0
LINE
  5
2C
330
2
100
AcDbEntity
  8
0
 62
     3
100
AcDbLine
 10
3611.66404377648
 20
548.3839725357975
 30
0.0
 11
5511.66404377648
 21
548.3839725357975
 31
0.0
  0
LINE
  5
2D
330
2
100
AcDbEntity
  8
0
 62
     3
100
AcDbLine
 10
3611.66404377648
 20
1398.383972535797
 30
0.0
 11
5511.66404377648
 21
1398.383972535797
 31
0.0
  0
LINE
  5
2E
330
2
100
AcDbEntity
  8
0
 62
     3
100
AcDbLine
 10
3611.66404377648
 20
2748.383972535802
 30
0.0
 11
5511.66404377648
 21
2748.383972535802
 31
0.0
  0
LINE
  5
2F
330
2
100
AcDbEntity
  8
0
 62
     3
100
AcDbLine
 10
3611.66404377648
 20
3418.383972535802
 30
0.0
 11
5511.66404377648
 21
3418.383972535802
 31
0.0
  0
TEXT
  5
30
330
2
100
AcDbEntity
  8
0
 62
     1
100
AcDbText
 10
4307.044580274392
 20
2942.32769108588
 30
0.0
 40
28.0
  1
COORDINAMENTO EDILIZIA SCOLASTICA
  7
ROMANT
100
AcDbText
  0
TEXT
  5
32
330
2
100
AcDbEntity
  8
0
 62
     1
100
AcDbText
 10
4434.023212127811
 20
3114.512499330262
 30
0.0
 40
28.0
  1
VICE DIREZIONE GENERALE 
  7
ROMANT
100
AcDbText
  0
TEXT
  5
34
330
2
100
AcDbEntity
  8
0
 62
     3
100
AcDbText
 10
4266.280820376813
 20
3220.012067467151
 30
0.0
 40
66.18198277238902
  1
CITTA' DI TORINO
  7
ROMANT
100
AcDbText
  0
LINE
  5
35
330
2
100
AcDbEntity
  8
0
 62
     3
100
AcDbLine
 10
3561.66404377648
 20
2078.383972535802
 30
0.0
 11
3561.66404377648
 21
1498.383972535797
 31
0.0
  0
LINE
  5
36
330
2
100
AcDbEntity
  8
0
 62
     1
100
AcDbLine
 10
3511.66404377648
 20
498.3839725358011
 30
0.0
 11
3511.66404377648
 21
3468.383972535801
 31
0.0
  0
LINE
  5
37
330
2
100
AcDbEntity
  8
0
 62
     1
100
AcDbLine
 10
3736.66404377648
 20
948.3839725357979
 30
0.0
 11
3736.66404377648
 21
548.3839725357975
 31
0.0
  0
LINE
  5
38
330
2
100
AcDbEntity
  8
0
 62
     3
100
AcDbLine
 10
3561.66404377648
 20
1348.383972535798
 30
0.0
 11
3561.66404377648
 21
598.3839725357975
 31
0.0
  0
ARC
  5
39
330
2
100
AcDbEntity
  8
0
 62
     3
100
AcDbCircle
 10
3611.66404377648
 20
598.3839725357975
 30
0.0
 40
50.0
100
AcDbArc
 50
180.0
 51
270.0
  0
TEXT
  5
3A
330
2
100
AcDbEntity
  8
0
 62
     1
100
AcDbText
 10
3646.22066221712
 20
568.3606238203656
 30
0.0
 40
20.0
  1
5
  7
ROMANS
100
AcDbText
  0
TEXT
  5
3C
330
2
100
AcDbEntity
  8
0
 62
     1
100
AcDbText
 10
3646.22066221712
 20
623.3104583392673
 30
0.0
 40
20.0
  1
4
  7
ROMANS
100
AcDbText
  0
TEXT
  5
3D
330
2
100
AcDbEntity
  8
0
 62
     1
100
AcDbText
 10
3636.943195995293
 20
905.0348073996088
 30
0.0
 40
20.0
  1
REV
  7
ROMANS
100
AcDbText
  0
TEXT
  5
3E
330
2
100
AcDbEntity
  8
0
 62
     1
100
AcDbText
 10
3998.094273349078
 20
905.3335059906325
 30
0.0
 40
20.0
  1
MODIFICHE
  7
ROMANS
100
AcDbText
  0
TEXT
  5
3F
330
2
100
AcDbEntity
  8
0
 62
     1
100
AcDbText
 10
3647.330435824505
 20
674.8162728193046
 30
0.0
 40
20.0
  1
3
  7
ROMANS
100
AcDbText
  0
TEXT
  5
40
330
2
100
AcDbEntity
  8
0
 62
     1
100
AcDbText
 10
3647.330435824505
 20
729.7661073382064
 30
0.0
 40
20.0
  1
2
  7
ROMANS
100
AcDbText
  0
TEXT
  5
41
330
2
100
AcDbEntity
  8
0
 62
     1
100
AcDbText
 10
3646.625478364214
 20
842.015412127932
 30
0.0
 40
20.0
  1
0
  7
ROMANS
100
AcDbText
  0
TEXT
  5
42
330
2
100
AcDbEntity
  8
0
 62
     1
100
AcDbText
 10
3646.076942399352
 20
786.2447893938228
 30
0.0
 40
20.0
  1
1
  7
ROMANS
100
AcDbText
  0
TEXT
  5
43
330
2
100
AcDbEntity
  8
0
 62
     1
100
AcDbText
 10
3609.726733933529
 20
1259.815330153546
 30
0.0
 40
20.0
  1
OGGETTO
  7
ROMANS
100
AcDbText
  0
ARC
  5
44
330
2
100
AcDbEntity
  8
0
 62
     3
100
AcDbCircle
 10
3611.66404377648
 20
1498.383972535797
 30
0.0
 40
50.0
100
AcDbArc
 50
180.0
 51
270.0
  0
ARC
  5
45
330
2
100
AcDbEntity
  8
0
 62
     3
100
AcDbCircle
 10
3611.66404377648
 20
1348.383972535798
 30
0.0
 40
50.0
100
AcDbArc
 50
90.0
 51
180.0
  0
LINE
  5
46
330
2
100
AcDbEntity
  8
0
 62
     3
100
AcDbLine
 10
3561.66404377648
 20
3368.383972535802
 30
0.0
 11
3561.66404377648
 21
2798.383972535802
 31
0.0
  0
LINE
  5
47
330
2
100
AcDbEntity
  8
0
 62
     3
100
AcDbLine
 10
3561.66404377648
 20
2648.383972535802
 30
0.0
 11
3561.66404377648
 21
2228.383972535802
 31
0.0
  0
ARC
  5
48
330
2
100
AcDbEntity
  8
0
 62
     3
100
AcDbCircle
 10
3611.664043776479
 20
2078.383972535802
 30
0.0
 40
50.0
100
AcDbArc
 50
90.0
 51
180.0
  0
ARC
  5
49
330
2
100
AcDbEntity
  8
0
 62
     3
100
AcDbCircle
 10
3611.66404377648
 20
2228.383972535802
 30
0.0
 40
50.0
100
AcDbArc
 50
180.0
 51
270.0
  0
ARC
  5
4B
330
2
100
AcDbEntity
  8
0
 62
     3
100
AcDbCircle
 10
3611.66404377648
 20
2648.383972535802
 30
0.0
 40
50.0
100
AcDbArc
 50
89.99999999999998
 51
180.0
  0
ARC
  5
4C
330
2
100
AcDbEntity
  8
0
 62
     3
100
AcDbCircle
 10
3611.66404377648
 20
2648.383972535802
 30
0.0
 40
50.0
100
AcDbArc
 50
90.0
 51
180.0
  0
ARC
  5
4D
330
2
100
AcDbEntity
  8
0
 62
     3
100
AcDbCircle
 10
3611.66404377648
 20
2798.383972535802
 30
0.0
 40
50.0
100
AcDbArc
 50
180.0
 51
270.0
  0
INSERT
  5
4E
330
2
100
AcDbEntity
  8
0
100
AcDbBlockReference
  2
TOROG
 10
3779.525989942813
 20
2839.038149916486
 30
0.0
 41
3.3
 42
3.3
 43
3.3
  0
ARC
  5
14B
330
2
100
AcDbEntity
  8
0
 62
     3
100
AcDbCircle
 10
3611.66404377648
 20
3368.383972535802
 30
0.0
 40
50.0
100
AcDbArc
 50
89.99999999999998
 51
180.0
  0
LINE
  5
14D
330
2
100
AcDbEntity
  8
0
 62
     3
100
AcDbLine
 10
5561.664043776481
 20
2078.383972535802
 30
0.0
 11
5561.664043776479
 21
1498.383972535797
 31
0.0
  0
LINE
  5
14E
330
2
100
AcDbEntity
  8
0
 62
     1
100
AcDbLine
 10
5611.664043776478
 20
498.3839725358011
 30
0.0
 11
5611.664043776478
 21
3468.383972535801
 31
0.0
  0
LINE
  5
14F
330
2
100
AcDbEntity
  8
0
 62
     1
100
AcDbLine
 10
4686.66404377648
 20
948.3839725357976
 30
0.0
 11
4686.66404377648
 21
548.3839725357975
 31
0.0
  0
LINE
  5
150
330
2
100
AcDbEntity
  8
0
 62
     1
100
AcDbLine
 10
4486.66404377648
 20
948.3839725357976
 30
0.0
 11
4486.66404377648
 21
548.3839725357975
 31
0.0
  0
LINE
  5
151
330
2
100
AcDbEntity
  8
0
 62
     3
100
AcDbLine
 10
5211.66404377648
 20
848.3839725357976
 30
0.0
 11
5211.66404377648
 21
648.3839725357975
 31
0.0
  0
LINE
  5
152
330
2
100
AcDbEntity
  8
0
 62
     3
100
AcDbLine
 10
5511.66404377648
 20
848.3839725357976
 30
0.0
 11
5511.66404377648
 21
648.3839725357975
 31
0.0
  0
LINE
  5
153
330
2
100
AcDbEntity
  8
0
 62
     1
100
AcDbLine
 10
5161.66404377648
 20
948.3839725357976
 30
0.0
 11
5161.66404377648
 21
548.3839725357975
 31
0.0
  0
LINE
  5
154
330
2
100
AcDbEntity
  8
0
 62
     3
100
AcDbLine
 10
5561.66404377648
 20
1348.383972535798
 30
0.0
 11
5561.66404377648
 21
598.3839725357975
 31
0.0
  0
LINE
  5
155
330
2
100
AcDbEntity
  8
0
 62
     3
100
AcDbLine
 10
5261.66404377648
 20
598.3839725357975
 30
0.0
 11
5461.66404377648
 21
598.3839725357975
 31
0.0
  0
ARC
  5
156
330
2
100
AcDbEntity
  8
0
 62
     3
100
AcDbCircle
 10
5261.66404377648
 20
648.3839725357975
 30
0.0
 40
50.0
100
AcDbArc
 50
180.0
 51
270.0
  0
ARC
  5
157
330
2
100
AcDbEntity
  8
0
 62
     3
100
AcDbCircle
 10
5461.66404377648
 20
648.3839725357975
 30
0.0
 40
50.0
100
AcDbArc
 50
270.0
 51
0.0
  0
ARC
  5
158
330
2
100
AcDbEntity
  8
0
 62
     3
100
AcDbCircle
 10
5511.66404377648
 20
598.3839725357975
 30
0.0
 40
50.0
100
AcDbArc
 50
270.0
 51
0.0
  0
LINE
  5
159
330
2
100
AcDbEntity
  8
0
 62
     1
100
AcDbLine
 10
5361.66404377648
 20
1181.71730586913
 30
0.0
 11
5361.66404377648
 21
1298.383972535797
 31
0.0
  0
LINE
  5
15A
330
2
100
AcDbEntity
  8
0
 62
     1
100
AcDbLine
 10
5161.66404377648
 20
1298.383972535797
 30
0.0
 11
5161.66404377648
 21
948.3839725357976
 31
0.0
  0
TEXT
  5
15B
330
2
100
AcDbEntity
  8
0
 62
     1
100
AcDbText
 10
4847.446597826102
 20
905.2260076864731
 30
0.0
 40
20.0
  1
DISEGNATORE
  7
ROMANS
100
AcDbText
  0
TEXT
  5
15C
330
2
100
AcDbEntity
  8
0
 62
     1
100
AcDbText
 10
4546.078726180439
 20
905.1333701387338
 30
0.0
 40
20.0
  1
DATA
  7
ROMANS
100
AcDbText
  0
LINE
  5
15D
330
2
100
AcDbEntity
  8
0
 62
     3
100
AcDbLine
 10
5261.66404377648
 20
898.3839725357976
 30
0.0
 11
5461.66404377648
 21
898.3839725357976
 31
0.0
  0
ARC
  5
15E
330
2
100
AcDbEntity
  8
0
 62
     3
100
AcDbCircle
 10
5261.66404377648
 20
848.3839725357976
 30
0.0
 40
50.0
100
AcDbArc
 50
90.0
 51
180.0
  0
ARC
  5
15F
330
2
100
AcDbEntity
  8
0
 62
     3
100
AcDbCircle
 10
5461.66404377648
 20
848.3839725357976
 30
0.0
 40
50.0
100
AcDbArc
 50
0.0
 51
90.0
  0
TEXT
  5
160
330
2
100
AcDbEntity
  8
0
 62
     1
100
AcDbText
 10
5303.763513286351
 20
863.1423080052901
 30
0.0
 40
20.0
  1
TAVOLA
  7
ROMANS
100
AcDbText
  0
LINE
  5
161
330
2
100
AcDbEntity
  8
0
 62
     1
100
AcDbLine
 10
5161.66404377648
 20
1181.71730586913
 30
0.0
 11
5561.66404377648
 21
1181.71730586913
 31
0.0
  0
LINE
  5
162
330
2
100
AcDbEntity
  8
0
 62
     1
100
AcDbLine
 10
5161.66404377648
 20
1065.050639202464
 30
0.0
 11
5561.66404377648
 21
1065.050639202464
 31
0.0
  0
TEXT
  5
163
330
2
100
AcDbEntity
  8
0
 62
     1
100
AcDbText
 10
5171.422428709343
 20
1143.363087103034
 30
0.0
 40
20.0
  1
RIFERIMENTO
  7
ROMANS
100
AcDbText
  0
TEXT
  5
164
330
2
100
AcDbEntity
  8
0
 62
     1
100
AcDbText
 10
5171.422428709343
 20
1028.758044868122
 30
0.0
 40
20.0
  1
SCALA
  7
ROMANS
100
AcDbText
  0
LINE
  5
166
330
2
100
AcDbEntity
  8
0
 62
     1
100
AcDbLine
 10
4817.342054829909
 20
1581.949482667053
 30
0.0
 11
5485.142054829908
 21
1581.949482667053
 31
0.0
  0
ARC
  5
168
330
2
100
AcDbEntity
  8
0
 62
     3
100
AcDbCircle
 10
5511.664043776479
 20
1498.383972535797
 30
0.0
 40
50.0
100
AcDbArc
 50
270.0
 51
359.9999999999999
  0
TEXT
  5
169
330
2
100
AcDbEntity
  8
0
 62
     1
100
AcDbText
 10
5171.422428709343
 20
1262.091378201455
 30
0.0
 40
20.0
  1
NOME-FILE
  7
ROMANS
100
AcDbText
  0
TEXT
  5
16A
330
2
100
AcDbEntity
  8
0
 62
     1
100
AcDbText
 10
5371.392251335501
 20
1262.091378201455
 30
0.0
 40
20.0
  1
Scala Plot
  7
ROMANS
100
AcDbText
  0
ARC
  5
16B
330
2
100
AcDbEntity
  8
0
 62
     3
100
AcDbCircle
 10
5511.66404377648
 20
1348.383972535798
 30
0.0
 40
50.0
100
AcDbArc
 50
0.0
 51
90.0
  0
TEXT
  5
16C
330
2
100
AcDbEntity
  8
0
 62
     1
100
AcDbText
 10
4907.65959285564
 20
1698.100027346789
 30
0.0
 40
25.0
  1
Arch. Isabella QUINTO
  7
ROMANT
100
AcDbText
  0
LINE
  5
16D
330
2
100
AcDbEntity
  8
0
 62
     3
100
AcDbLine
 10
5561.66404377648
 20
3368.383972535801
 30
0.0
 11
5561.66404377648
 21
2798.383972535802
 31
0.0
  0
LINE
  5
16E
330
2
100
AcDbEntity
  8
0
 62
     3
100
AcDbLine
 10
5561.66404377648
 20
2648.383972535802
 30
0.0
 11
5561.66404377648
 21
2228.383972535802
 31
0.0
  0
ARC
  5
171
330
2
100
AcDbEntity
  8
0
 62
     3
100
AcDbCircle
 10
5511.66404377648
 20
2078.383972535802
 30
0.0
 40
50.0
100
AcDbArc
 50
0.0
 51
90.0
  0
ARC
  5
172
330
2
100
AcDbEntity
  8
0
 62
     3
100
AcDbCircle
 10
5511.66404377648
 20
2228.383972535802
 30
0.0
 40
50.0
100
AcDbArc
 50
270.0
 51
0.0
  0
ARC
  5
173
330
2
100
AcDbEntity
  8
0
 62
     3
100
AcDbCircle
 10
5511.66404377648
 20
2648.383972535802
 30
0.0
 40
50.0
100
AcDbArc
 50
0.0
 51
89.99999999999998
  0
ARC
  5
174
330
2
100
AcDbEntity
  8
0
 62
     3
100
AcDbCircle
 10
5511.66404377648
 20
2648.383972535802
 30
0.0
 40
50.0
100
AcDbArc
 50
0.0
 51
90.0
  0
ARC
  5
175
330
2
100
AcDbEntity
  8
0
 62
     3
100
AcDbCircle
 10
5511.66404377648
 20
2798.383972535802
 30
0.0
 40
50.0
100
AcDbArc
 50
270.0
 51
0.0
  0
ARC
  5
176
330
2
100
AcDbEntity
  8
0
 62
     3
100
AcDbCircle
 10
5511.66404377648
 20
3368.383972535801
 30
0.0
 40
50.0
100
AcDbArc
 50
0.0
 51
89.99999999999998
  0
MTEXT
  5
188
330
2
100
AcDbEntity
  8
TORO
100
AcDbMText
 10
4848.652140749002
 20
1947.988714657143
 30
0.0
 40
30.0
 41
760.8775364767934
 71
     1
 72
     5
  1
{\fTimes New Roman|b1|i0|c0|p18;\H0.8667x; Il Responsabile del procedimento:\fTimes New Roman|b0|i0|c0|p18;^J    Il Dirigente del Settore Tecnico\P    Edilizia Scolastica Nuove Opere}
 73
     1
 44
1.0
  0
TEXT
  5
1A0
330
2
100
AcDbEntity
  8
0
 62
     2
100
AcDbText
 10
4160.588456996158
 20
2488.040535963164
 30
0.0
 40
50.0
  1
EDIFICIO SCOLASTICO
  7
ROMANT
100
AcDbText
  0
TEXT
  5
1A1
330
2
100
AcDbEntity
  8
0
 62
     1
100
AcDbText
 10
4218.341357109196
 20
2872.061986599348
 30
0.0
 40
28.0
  1
SETTORE EDILIZIA SCOLASTICA NUOVE OPERE
  7
ROMANT
100
AcDbText
  0
TEXT
  5
1AB
330
2
100
AcDbEntity
  8
0
 62
     2
100
AcDbText
 10
4309.860758713769
 20
2342.732333853013
 30
0.0
 40
50.0
  1
VIA MILLIO 42
  7
ROMANT
100
AcDbText
  0
MTEXT
  5
1AF
330
2
100
AcDbEntity
  8
0
 62
     1
100
AcDbMText
 10
4595.374983073111
 20
3083.527719133681
 30
0.0
 40
22.0
 41
500.0
 71
     1
 72
     1
  1
SERVIZI TECNICI
  7
ROMANT
 73
     1
 44
1.0
  0
ENDSEC
  0
SECTION
  2
OBJECTS
  0
DICTIONARY
  5
1A
330
0
100
AcDbDictionary
281
     1
  3
ACAD_COLOR
350
17B
  3
ACAD_GROUP
350
18
  3
ACAD_LAYOUT
350
17C
  3
ACAD_MATERIAL
350
17A
  3
ACAD_MLINESTYLE
350
19
  3
ACAD_PLOTSETTINGS
350
17D
  3
ACAD_PLOTSTYLENAME
350
178
  0
DICTIONARY
  5
17B
102
{ACAD_REACTORS
330
1A
102
}
330
1A
100
AcDbDictionary
281
     1
  0
DICTIONARY
  5
18
102
{ACAD_REACTORS
330
1A
102
}
330
1A
100
AcDbDictionary
281
     1
  0
DICTIONARY
  5
17C
102
{ACAD_REACTORS
330
1A
102
}
330
1A
100
AcDbDictionary
281
     1
  3
Layout1
350
17F
  3
Model
350
17E
  0
DICTIONARY
  5
17A
102
{ACAD_REACTORS
330
1A
102
}
330
1A
100
AcDbDictionary
281
     1
  0
DICTIONARY
  5
19
102
{ACAD_REACTORS
330
1A
102
}
330
1A
100
AcDbDictionary
281
     1
  3
STANDARD
350
1B
  0
DICTIONARY
  5
17D
102
{ACAD_REACTORS
330
1A
102
}
330
1A
100
AcDbDictionary
281
     1
  0
ACDBDICTIONARYWDFLT
  5
178
102
{ACAD_REACTORS
330
1A
102
}
330
1A
100
AcDbDictionary
281
     1
  3
Normal
350
179
100
AcDbDictionaryWithDefault
340
179
  0
LAYOUT
  5
17F
102
{ACAD_REACTORS
330
17C
102
}
330
17C
100
AcDbPlotSettings
  1

  2
Lexmark corridoio
  4

  6

 40
0.0
 41
0.0
 42
0.0
 43
0.0
 44
0.0
 45
0.0
 46
0.0
 47
0.0
 48
0.0
 49
0.0
140
0.0
141
0.0
142
1.0
143
1.0
 70
   688
 72
     0
 73
     0
 74
     5
  7
monochrome.ctb
 75
    16
147
1.0
 76
     0
 77
     2
 78
   300
148
0.0
149
0.0
100
AcDbLayout
  1
Layout1
 70
     1
 71
     1
 10
0.0
 20
0.0
 11
12.0
 21
9.0
 12
0.0
 22
0.0
 32
0.0
 14
1.000000000000000E+20
 24
1.000000000000000E+20
 34
1.000000000000000E+20
 15
-1.000000000000000E+20
 25
-1.000000000000000E+20
 35
-1.000000000000000E+20
146
0.0
 13
0.0
 23
0.0
 33
0.0
 16
1.0
 26
0.0
 36
0.0
 17
0.0
 27
1.0
 37
0.0
 76
     0
330
8
  0
LAYOUT
  5
17E
102
{ACAD_REACTORS
330
17C
102
}
330
17C
100
AcDbPlotSettings
  1

  2
Lexmark  nel corridoio
  4
A4
  6

 40
6.805083274841308
 41
5.535083293914794
 42
6.974411010742187
 43
7.14373779296875
 44
209.9733276367187
 45
296.9259948730469
 46
0.0
 47
3.39
 48
3511.66404377648
 49
498.3839725358007
140
5611.664043776478
141
3468.383972535801
142
1.0
143
10.70370033619534
 70
 11956
 72
     1
 73
     0
 74
     4
  7
monochrome.ctb
 75
     0
147
0.0934256349291121
 76
     0
 77
     2
 78
   300
148
-3511.66404377648
149
-498.3839725358007
100
AcDbLayout
  1
Model
 70
     1
 71
     0
 10
0.0
 20
0.0
 11
12.0
 21
9.0
 12
0.0
 22
0.0
 32
0.0
 14
0.0
 24
0.0
 34
0.0
 15
0.0
 25
0.0
 35
0.0
146
0.0
 13
0.0
 23
0.0
 33
0.0
 16
1.0
 26
0.0
 36
0.0
 17
0.0
 27
1.0
 37
0.0
 76
     0
330
2
  0
MLINESTYLE
  5
1B
102
{ACAD_REACTORS
330
19
102
}
330
19
100
AcDbMlineStyle
  2
STANDARD
 70
     0
  3

 62
     0
 51
90.0
 52
90.0
 71
     2
 49
0.5
 62
   256
  6
BYLAYER
 49
-0.5
 62
   256
  6
BYLAYER
  0
ACDBPLACEHOLDER
  5
179
102
{ACAD_REACTORS
330
178
102
}
330
178
  0
ENDSEC
  0
EOF
