  0
SECTION
  2
HEADER
  9
$ACADVER
  1
AC1018
  9
$ACADMAINTVER
 70
     2
  9
$DWGCODEPAGE
  3
ANSI_1252
  9
$INSBASE
 10
0.0
 20
0.0
 30
0.0
  9
$EXTMIN
 10
570.4347762885809
 20
201.4387658424675
 30
0.0
  9
$EXTMAX
 10
9424.699551860038
 20
7735.944975894219
 30
0.0
  9
$LIMMIN
 10
0.0
 20
0.0
  9
$LIMMAX
 10
420.0
 20
297.0
  9
$ORTHOMODE
 70
     0
  9
$REGENMODE
 70
     1
  9
$FILLMODE
 70
     1
  9
$QTEXTMODE
 70
     0
  9
$MIRRTEXT
 70
     0
  9
$LTSCALE
 40
1.0
  9
$ATTMODE
 70
     1
  9
$TEXTSIZE
 40
2.5
  9
$TRACEWID
 40
1.0
  9
$TEXTSTYLE
  7
Standard
  9
$CLAYER
  8
TT
  9
$CELTYPE
  6
ByLayer
  9
$CECOLOR
 62
   256
  9
$CELTSCALE
 40
1.0
  9
$DISPSILH
 70
     0
  9
$DIMSCALE
 40
1.0
  9
$DIMASZ
 40
2.5
  9
$DIMEXO
 40
0.625
  9
$DIMDLI
 40
3.75
  9
$DIMRND
 40
0.0
  9
$DIMDLE
 40
0.0
  9
$DIMEXE
 40
1.25
  9
$DIMTP
 40
0.0
  9
$DIMTM
 40
0.0
  9
$DIMTXT
 40
2.5
  9
$DIMCEN
 40
2.5
  9
$DIMTSZ
 40
0.0
  9
$DIMTOL
 70
     0
  9
$DIMLIM
 70
     0
  9
$DIMTIH
 70
     0
  9
$DIMTOH
 70
     0
  9
$DIMSE1
 70
     0
  9
$DIMSE2
 70
     0
  9
$DIMTAD
 70
     1
  9
$DIMZIN
 70
     8
  9
$DIMBLK
  1

  9
$DIMASO
 70
     1
  9
$DIMSHO
 70
     1
  9
$DIMPOST
  1

  9
$DIMAPOST
  1

  9
$DIMALT
 70
     0
  9
$DIMALTD
 70
     3
  9
$DIMALTF
 40
0.03937007874016
  9
$DIMLFAC
 40
1.0
  9
$DIMTOFL
 70
     1
  9
$DIMTVP
 40
0.0
  9
$DIMTIX
 70
     0
  9
$DIMSOXD
 70
     0
  9
$DIMSAH
 70
     0
  9
$DIMBLK1
  1

  9
$DIMBLK2
  1

  9
$DIMSTYLE
  2
ISO-25
  9
$DIMCLRD
 70
     0
  9
$DIMCLRE
 70
     0
  9
$DIMCLRT
 70
     0
  9
$DIMTFAC
 40
1.0
  9
$DIMGAP
 40
0.625
  9
$DIMJUST
 70
     0
  9
$DIMSD1
 70
     0
  9
$DIMSD2
 70
     0
  9
$DIMTOLJ
 70
     0
  9
$DIMTZIN
 70
     8
  9
$DIMALTZ
 70
     0
  9
$DIMALTTZ
 70
     0
  9
$DIMUPT
 70
     0
  9
$DIMDEC
 70
     2
  9
$DIMTDEC
 70
     2
  9
$DIMALTU
 70
     2
  9
$DIMALTTD
 70
     3
  9
$DIMTXSTY
  7
Standard
  9
$DIMAUNIT
 70
     0
  9
$DIMADEC
 70
     0
  9
$DIMALTRND
 40
0.0
  9
$DIMAZIN
 70
     0
  9
$DIMDSEP
 70
    44
  9
$DIMATFIT
 70
     3
  9
$DIMFRAC
 70
     0
  9
$DIMLDRBLK
  1

  9
$DIMLUNIT
 70
     2
  9
$DIMLWD
 70
    -2
  9
$DIMLWE
 70
    -2
  9
$DIMTMOVE
 70
     0
  9
$LUNITS
 70
     2
  9
$LUPREC
 70
     4
  9
$SKETCHINC
 40
1.0
  9
$FILLETRAD
 40
0.0
  9
$AUNITS
 70
     0
  9
$AUPREC
 70
     0
  9
$MENU
  1
.
  9
$ELEVATION
 40
0.0
  9
$PELEVATION
 40
0.0
  9
$THICKNESS
 40
0.0
  9
$LIMCHECK
 70
     0
  9
$CHAMFERA
 40
0.0
  9
$CHAMFERB
 40
0.0
  9
$CHAMFERC
 40
0.0
  9
$CHAMFERD
 40
0.0
  9
$SKPOLY
 70
     0
  9
$TDCREATE
 40
2453706.651169699
  9
$TDUCREATE
 40
2453706.609503033
  9
$TDUPDATE
 40
2453801.508214873
  9
$TDUUPDATE
 40
2453801.466548206
  9
$TDINDWG
 40
0.0540429745
  9
$TDUSRTIMER
 40
0.0540429745
  9
$USRTIMER
 70
     1
  9
$ANGBASE
 50
0.0
  9
$ANGDIR
 70
     0
  9
$PDMODE
 70
     0
  9
$PDSIZE
 40
0.0
  9
$PLINEWID
 40
0.0
  9
$SPLFRAME
 70
     0
  9
$SPLINETYPE
 70
     6
  9
$SPLINESEGS
 70
     8
  9
$HANDSEED
  5
C63
  9
$SURFTAB1
 70
     6
  9
$SURFTAB2
 70
     6
  9
$SURFTYPE
 70
     6
  9
$SURFU
 70
     6
  9
$SURFV
 70
     6
  9
$UCSBASE
  2

  9
$UCSNAME
  2

  9
$UCSORG
 10
0.0
 20
0.0
 30
0.0
  9
$UCSXDIR
 10
1.0
 20
0.0
 30
0.0
  9
$UCSYDIR
 10
0.0
 20
1.0
 30
0.0
  9
$UCSORTHOREF
  2

  9
$UCSORTHOVIEW
 70
     0
  9
$UCSORGTOP
 10
0.0
 20
0.0
 30
0.0
  9
$UCSORGBOTTOM
 10
0.0
 20
0.0
 30
0.0
  9
$UCSORGLEFT
 10
0.0
 20
0.0
 30
0.0
  9
$UCSORGRIGHT
 10
0.0
 20
0.0
 30
0.0
  9
$UCSORGFRONT
 10
0.0
 20
0.0
 30
0.0
  9
$UCSORGBACK
 10
0.0
 20
0.0
 30
0.0
  9
$PUCSBASE
  2

  9
$PUCSNAME
  2

  9
$PUCSORG
 10
0.0
 20
0.0
 30
0.0
  9
$PUCSXDIR
 10
1.0
 20
0.0
 30
0.0
  9
$PUCSYDIR
 10
0.0
 20
1.0
 30
0.0
  9
$PUCSORTHOREF
  2

  9
$PUCSORTHOVIEW
 70
     0
  9
$PUCSORGTOP
 10
0.0
 20
0.0
 30
0.0
  9
$PUCSORGBOTTOM
 10
0.0
 20
0.0
 30
0.0
  9
$PUCSORGLEFT
 10
0.0
 20
0.0
 30
0.0
  9
$PUCSORGRIGHT
 10
0.0
 20
0.0
 30
0.0
  9
$PUCSORGFRONT
 10
0.0
 20
0.0
 30
0.0
  9
$PUCSORGBACK
 10
0.0
 20
0.0
 30
0.0
  9
$USERI1
 70
     0
  9
$USERI2
 70
     0
  9
$USERI3
 70
     0
  9
$USERI4
 70
     0
  9
$USERI5
 70
     0
  9
$USERR1
 40
0.0
  9
$USERR2
 40
0.0
  9
$USERR3
 40
0.0
  9
$USERR4
 40
0.0
  9
$USERR5
 40
0.0
  9
$WORLDVIEW
 70
     1
  9
$SHADEDGE
 70
     3
  9
$SHADEDIF
 70
    70
  9
$TILEMODE
 70
     1
  9
$MAXACTVP
 70
    64
  9
$PINSBASE
 10
0.0
 20
0.0
 30
0.0
  9
$PLIMCHECK
 70
     0
  9
$PEXTMIN
 10
565.7849750518798
 20
815.0436639785766
 30
0.0
  9
$PEXTMAX
 10
5092.064775466919
 20
7335.39297580719
 30
0.0
  9
$PLIMMIN
 10
-136.1016654968262
 20
-105.6217098236084
  9
$PLIMMAX
 10
5802.418231964111
 20
8293.311395645142
  9
$UNITMODE
 70
     0
  9
$VISRETAIN
 70
     1
  9
$PLINEGEN
 70
     0
  9
$PSLTSCALE
 70
     1
  9
$TREEDEPTH
 70
  3020
  9
$CMLSTYLE
  2
Standard
  9
$CMLJUST
 70
     0
  9
$CMLSCALE
 40
20.0
  9
$PROXYGRAPHICS
 70
     1
  9
$MEASUREMENT
 70
     1
  9
$CELWEIGHT
370
    -1
  9
$ENDCAPS
280
     0
  9
$JOINSTYLE
280
     0
  9
$LWDISPLAY
290
     0
  9
$INSUNITS
 70
     4
  9
$HYPERLINKBASE
  1

  9
$STYLESHEET
  1
monochrome.ctb
  9
$XEDIT
290
     1
  9
$CEPSNTYPE
380
     0
  9
$PSTYLEMODE
290
     1
  9
$FINGERPRINTGUID
  2
{82FD4B6E-A590-11D2-9A33-0060089B3A3F}
  9
$VERSIONGUID
  2
{F5F27279-9CF7-412A-A73C-F1AF808F1B6F}
  9
$EXTNAMES
290
     1
  9
$PSVPSCALE
 40
0.0
  9
$OLESTARTUP
290
     0
  9
$SORTENTS
280
   127
  9
$INDEXCTL
280
     0
  9
$HIDETEXT
280
     1
  9
$XCLIPFRAME
290
     0
  9
$HALOGAP
280
     0
  9
$OBSCOLOR
 70
   257
  9
$OBSLTYPE
280
     0
  9
$INTERSECTIONDISPLAY
280
     0
  9
$INTERSECTIONCOLOR
 70
   257
  9
$DIMASSOC
280
     2
  9
$PROJECTNAME
  1

  0
ENDSEC
  0
SECTION
  2
CLASSES
  0
CLASS
  1
ACDBDICTIONARYWDFLT
  2
AcDbDictionaryWithDefault
  3
ObjectDBX Classes
 90
        0
 91
        1
280
     0
281
     0
  0
CLASS
  1
PLOTSETTINGS
  2
AcDbPlotSettings
  3
ObjectDBX Classes
 90
        0
 91
        1
280
     0
281
     0
  0
CLASS
  1
DICTIONARYVAR
  2
AcDbDictionaryVar
  3
ObjectDBX Classes
 90
        0
 91
        3
280
     0
281
     0
  0
CLASS
  1
RASTERVARIABLES
  2
AcDbRasterVariables
  3
ISM
 90
        0
 91
        1
280
     0
281
     0
  0
CLASS
  1
IMAGEDEF
  2
AcDbRasterImageDef
  3
ISM
 90
        0
 91
        3
280
     0
281
     0
  0
CLASS
  1
IMAGEDEF_REACTOR
  2
AcDbRasterImageDefReactor
  3
ISM
 90
        1
 91
        3
280
     0
281
     0
  0
CLASS
  1
IMAGE
  2
AcDbRasterImage
  3
ISM
 90
      127
 91
        3
280
     0
281
     1
  0
ENDSEC
  0
SECTION
  2
TABLES
  0
TABLE
  2
VPORT
  5
8
330
0
100
AcDbSymbolTable
 70
     2
  0
VPORT
  5
C62
330
8
100
AcDbSymbolTableRecord
100
AcDbViewportTableRecord
  2
*Active
 70
     0
 10
0.0
 20
0.0
 11
1.0
 21
1.0
 12
6824.681699663999
 22
3892.424345534595
 13
0.0
 23
0.0
 14
10.0
 24
10.0
 15
10.0
 25
10.0
 16
0.0
 26
0.0
 36
1.0
 17
0.0
 27
0.0
 37
0.0
 40
9819.696571243326
 41
1.757855822550831
 42
50.0
 43
0.0
 44
0.0
 50
0.0
 51
0.0
 71
     0
 72
  1000
 73
     1
 74
     3
 75
     0
 76
     0
 77
     0
 78
     0
281
     0
 65
     1
110
0.0
120
0.0
130
0.0
111
1.0
121
0.0
131
0.0
112
0.0
122
1.0
132
0.0
 79
     0
146
0.0
  0
ENDTAB
  0
TABLE
  2
LTYPE
  5
5
330
0
100
AcDbSymbolTable
 70
     3
  0
LTYPE
  5
14
330
5
100
AcDbSymbolTableRecord
100
AcDbLinetypeTableRecord
  2
ByBlock
 70
     0
  3

 72
    65
 73
     0
 40
0.0
  0
LTYPE
  5
15
330
5
100
AcDbSymbolTableRecord
100
AcDbLinetypeTableRecord
  2
ByLayer
 70
     0
  3

 72
    65
 73
     0
 40
0.0
  0
LTYPE
  5
16
330
5
100
AcDbSymbolTableRecord
100
AcDbLinetypeTableRecord
  2
Continuous
 70
     0
  3
Solid line
 72
    65
 73
     0
 40
0.0
  0
LTYPE
  5
413
330
5
100
AcDbSymbolTableRecord
100
AcDbLinetypeTableRecord
  2
DASHED
 70
     0
  3
__ __ __ __ __ __ __ __ __ __ __ __ __ __ __ __
 72
    65
 73
     2
 40
0.75
 49
0.5
 74
     0
 49
-0.25
 74
     0
  0
LTYPE
  5
C1F
330
5
100
AcDbSymbolTableRecord
100
AcDbLinetypeTableRecord
  2
HIDDEN
 70
     0
  3
Hidden __ __ __ __ __ __ __ __ __ __ __ __ __ _
 72
    65
 73
     2
 40
9.524999999999998
 49
6.349999999999999
 74
     0
 49
-3.174999999999999
 74
     0
  0
ENDTAB
  0
TABLE
  2
LAYER
  5
2
330
0
100
AcDbSymbolTable
 70
    24
  0
LAYER
  5
10
330
2
100
AcDbSymbolTableRecord
100
AcDbLayerTableRecord
  2
0
 70
     0
 62
     7
  6
Continuous
370
    -3
390
F
  0
LAYER
  5
33
330
2
100
AcDbSymbolTableRecord
100
AcDbLayerTableRecord
  2
FRAME 200
 70
     0
 62
     8
  6
Continuous
370
    -3
390
F
  0
LAYER
  5
3C
330
2
100
AcDbSymbolTableRecord
100
AcDbLayerTableRecord
  2
FRAME 070
 70
     0
 62
     5
  6
Continuous
370
    -3
390
F
  0
LAYER
  5
41
330
2
100
AcDbSymbolTableRecord
100
AcDbLayerTableRecord
  2
FRAME 050
 70
     0
 62
     6
  6
Continuous
370
    -3
390
F
  0
LAYER
  5
6D
330
2
100
AcDbSymbolTableRecord
100
AcDbLayerTableRecord
  2
Title Block
 70
     0
 62
     7
  6
Continuous
370
    -3
390
F
  0
LAYER
  5
89
330
2
100
AcDbSymbolTableRecord
100
AcDbLayerTableRecord
  2
FRAME 025
 70
     0
 62
     7
  6
Continuous
370
    -3
390
F
  0
LAYER
  5
3A0
330
2
100
AcDbSymbolTableRecord
100
AcDbLayerTableRecord
  2
Viewport
 70
     0
 62
     7
  6
Continuous
370
    -3
390
F
  0
LAYER
  5
414
330
2
100
AcDbSymbolTableRecord
100
AcDbLayerTableRecord
  2
SCALE
 70
     0
 62
     1
  6
Continuous
370
    15
390
F
  0
LAYER
  5
415
330
2
100
AcDbSymbolTableRecord
100
AcDbLayerTableRecord
  2
SERR-INT
 70
     0
 62
     1
  6
Continuous
370
    15
390
F
  0
LAYER
  5
416
330
2
100
AcDbSymbolTableRecord
100
AcDbLayerTableRecord
  2
SERR-EST
 70
     0
 62
     1
  6
Continuous
370
    15
390
F
  0
LAYER
  5
417
330
2
100
AcDbSymbolTableRecord
100
AcDbLayerTableRecord
  2
ASSI-PIL
 70
     0
 62
     1
  6
Continuous
370
    15
390
F
  0
LAYER
  5
418
330
2
100
AcDbSymbolTableRecord
100
AcDbLayerTableRecord
  2
DEST-LOC
 70
     0
 62
     2
  6
Continuous
370
    15
390
F
  0
LAYER
  5
419
330
2
100
AcDbSymbolTableRecord
100
AcDbLayerTableRecord
  2
QUOTE-ANT
 70
     0
 62
     1
  6
Continuous
370
    15
390
F
  0
LAYER
  5
41A
330
2
100
AcDbSymbolTableRecord
100
AcDbLayerTableRecord
  2
SCRITTE-VARIE
 70
     0
 62
     3
  6
Continuous
370
    15
390
F
  0
LAYER
  5
41B
330
2
100
AcDbSymbolTableRecord
100
AcDbLayerTableRecord
  2
LINEA-SEZIO
 70
     0
 62
     2
  6
Continuous
370
    15
390
F
  0
LAYER
  5
41C
330
2
100
AcDbSymbolTableRecord
100
AcDbLayerTableRecord
  2
MUR-EST
 70
     0
 62
     3
  6
Continuous
370
    40
390
F
  0
LAYER
  5
41D
330
2
100
AcDbSymbolTableRecord
100
AcDbLayerTableRecord
  2
TETTO
 70
     0
 62
     1
  6
Continuous
370
    15
390
F
  0
LAYER
  5
41E
330
2
100
AcDbSymbolTableRecord
100
AcDbLayerTableRecord
  2
IMPIANTO-ELETTRICO
 70
     0
 62
     2
  6
Continuous
370
    -3
390
F
  0
LAYER
  5
41F
330
2
100
AcDbSymbolTableRecord
100
AcDbLayerTableRecord
  2
INTESTAZIONE
 70
     0
 62
     9
  6
Continuous
370
    -3
390
F
  0
LAYER
  5
420
330
2
100
AcDbSymbolTableRecord
100
AcDbLayerTableRecord
  2
VV-F
 70
     0
 62
     3
  6
Continuous
370
    -3
390
F
  0
LAYER
  5
421
330
2
100
AcDbSymbolTableRecord
100
AcDbLayerTableRecord
  2
2DMURI
 70
     0
 62
     9
  6
Continuous
370
    -3
390
F
  0
LAYER
  5
BD9
330
2
100
AcDbSymbolTableRecord
100
AcDbLayerTableRecord
  2
TT
 70
     0
 62
     1
  6
Continuous
370
    -3
390
F
  0
LAYER
  5
C2F
330
2
100
AcDbSymbolTableRecord
100
AcDbLayerTableRecord
  2
500
 70
     0
 62
     2
  6
Continuous
370
    -3
390
F
  0
LAYER
  5
C30
330
2
100
AcDbSymbolTableRecord
100
AcDbLayerTableRecord
  2
VISTE
 70
     0
 62
     2
  6
Continuous
370
    30
390
F
  0
ENDTAB
  0
TABLE
  2
STYLE
  5
3
330
0
100
AcDbSymbolTable
 70
     6
  0
STYLE
  5
11
330
3
100
AcDbSymbolTableRecord
100
AcDbTextStyleTableRecord
  2
Standard
 70
     0
 40
0.0
 41
1.0
 50
0.0
 71
     0
 42
2.5
  3
txt
  4

  0
STYLE
  5
5C
330
3
100
AcDbSymbolTableRecord
100
AcDbTextStyleTableRecord
  2
ISO Proportional
 70
     0
 40
0.0
 41
1.0
 50
0.0
 71
     0
 42
2.5
  3
isocp.shx
  4

  0
STYLE
  5
422
330
3
100
AcDbSymbolTableRecord
100
AcDbTextStyleTableRecord
  2
ROMANS
 70
     0
 40
0.0
 41
1.0
 50
0.0
 71
     0
 42
40.0
  3
ROMANS.shx
  4

  0
STYLE
  5
423
330
3
100
AcDbSymbolTableRecord
100
AcDbTextStyleTableRecord
  2
ROMANC
 70
     0
 40
0.0
 41
1.0
 50
0.0
 71
     0
 42
30.0
  3
ROMANC.shx
  4

  0
STYLE
  5
424
330
3
100
AcDbSymbolTableRecord
100
AcDbTextStyleTableRecord
  2
SYMATH
 70
     0
 40
0.0
 41
1.0
 50
0.0
 71
     0
 42
20.0
  3
symath
  4

  0
STYLE
  5
C1E
330
3
100
AcDbSymbolTableRecord
100
AcDbTextStyleTableRecord
  2

 70
     1
 40
0.0
 41
1.0
 50
0.0
 71
     0
 42
2.5
  3
ltypeshp.shx
  4

  0
ENDTAB
  0
TABLE
  2
VIEW
  5
6
330
0
100
AcDbSymbolTable
 70
     0
  0
ENDTAB
  0
TABLE
  2
UCS
  5
7
330
0
100
AcDbSymbolTable
 70
     0
  0
ENDTAB
  0
TABLE
  2
APPID
  5
9
330
0
100
AcDbSymbolTable
 70
     1
  0
APPID
  5
12
330
9
100
AcDbSymbolTableRecord
100
AcDbRegAppTableRecord
  2
ACAD
 70
     0
  0
ENDTAB
  0
TABLE
  2
DIMSTYLE
  5
A
330
0
100
AcDbSymbolTable
 70
     2
100
AcDbDimStyleTable
 71
     0
  0
DIMSTYLE
105
27
330
A
100
AcDbSymbolTableRecord
100
AcDbDimStyleTableRecord
  2
ISO-25
 70
     0
 41
2.5
 42
0.625
 43
3.75
 44
1.25
 73
     0
 74
     0
 77
     1
 78
     8
140
2.5
141
2.5
143
0.03937007874016
147
0.625
171
     3
172
     1
271
     2
272
     2
274
     3
278
    44
283
     0
284
     8
340
11
  0
DIMSTYLE
105
425
330
A
100
AcDbSymbolTableRecord
100
AcDbDimStyleTableRecord
  2
STANDARD
 70
     0
340
11
  0
ENDTAB
  0
TABLE
  2
BLOCK_RECORD
  5
1
330
0
100
AcDbSymbolTable
 70
     6
  0
BLOCK_RECORD
  5
1F
330
1
100
AcDbSymbolTableRecord
100
AcDbBlockTableRecord
  2
*Model_Space
340
22
  0
BLOCK_RECORD
  5
BDC
330
1
100
AcDbSymbolTableRecord
100
AcDbBlockTableRecord
  2
*Paper_Space
340
BDD
  0
BLOCK_RECORD
  5
31
330
1
100
AcDbSymbolTableRecord
100
AcDbBlockTableRecord
  2
ISO A3 title block
340
0
310
2800000020000000200000000100080000000000000400000000000000000000000000000000000000000000000080000080000000808000800000008000800080800000C0C0C000C0DCC000F0CAA6000020400000206000002080000020A0000020C0000020E00000400000004020000040400000406000004080000040A0
310
000040C0000040E00000600000006020000060400000606000006080000060A0000060C0000060E00000800000008020000080400000806000008080000080A0000080C0000080E00000A0000000A0200000A0400000A0600000A0800000A0A00000A0C00000A0E00000C0000000C0200000C0400000C0600000C0800000C0
310
A00000C0C00000C0E00000E0000000E0200000E0400000E0600000E0800000E0A00000E0C00000E0E00040000000400020004000400040006000400080004000A0004000C0004000E00040200000402020004020400040206000402080004020A0004020C0004020E000404000004040200040404000404060004040800040
310
40A0004040C0004040E00040600000406020004060400040606000406080004060A0004060C0004060E00040800000408020004080400040806000408080004080A0004080C0004080E00040A0000040A0200040A0400040A0600040A0800040A0A00040A0C00040A0E00040C0000040C0200040C0400040C0600040C08000
310
40C0A00040C0C00040C0E00040E0000040E0200040E0400040E0600040E0800040E0A00040E0C00040E0E00080000000800020008000400080006000800080008000A0008000C0008000E00080200000802020008020400080206000802080008020A0008020C0008020E00080400000804020008040400080406000804080
310
008040A0008040C0008040E00080600000806020008060400080606000806080008060A0008060C0008060E00080800000808020008080400080806000808080008080A0008080C0008080E00080A0000080A0200080A0400080A0600080A0800080A0A00080A0C00080A0E00080C0000080C0200080C0400080C0600080C0
310
800080C0A00080C0C00080C0E00080E0000080E0200080E0400080E0600080E0800080E0A00080E0C00080E0E000C0000000C0002000C0004000C0006000C0008000C000A000C000C000C000E000C0200000C0202000C0204000C0206000C0208000C020A000C020C000C020E000C0400000C0402000C0404000C0406000C0
310
408000C040A000C040C000C040E000C0600000C0602000C0604000C0606000C0608000C060A000C060C000C060E000C0800000C0802000C0804000C0806000C0808000C080A000C080C000C080E000C0A00000C0A02000C0A04000C0A06000C0A08000C0A0A000C0A0C000C0A0E000C0C00000C0C02000C0C04000C0C06000
310
C0C08000C0C0A000F0FBFF00A4A0A000808080000000FF0000FF000000FFFF00FF000000FF00FF00FFFF0000FFFFFF00FFFFFFFFFFFFFFFFFFFFFFFFFFFFFFFFFFFFFFFFFFFFFFFFFFFFFFFFFFFFFFFFFFFFFFFFFFFFFFFFFFFFFFFFFFFFFFFFFFFFFFFFFFFFFFFFFFFFFFFFFFFFFFFFFFFFFFFFFFFFFFFFFFFFFFFFFFFFFF
310
FFFFFFFFFFFFFFFFFFFFFFFFFFFFFFFFFFFFFFFFFFFFFFFFFFFFFFFFFFFFFFFFFFFFFFFFFFFFFFFFFFFFFFFFFFFFFFFFFFFFFFFFFFFFFFFFFFFFFFFFFFFFFFFFFFFFFFFFFFFFFFFFFFFFFFFFFFFFFFFFFFFFFFFFFFFFFFFFFFFFFFFFFFFFFFFFFFFFFFFFFFFFFFFFFFFFFFFFFFFFFFFFFFFFA4A4FCFDFDFCFDFCFDFDFDFDFD
310
FDFDFDFDFCFDFDFDFDFCFDFDFDFC00A4A4FFFFFFFCFFFFFFFFFFFFFFFFFFFFFFFFFFFDFFFCFFFDFDFFFCFDFDFDFC00FCFFFFFFFFFDFFFFFFFFFFFFFFFFFFFFFFFFFFFFFFFCFCFCFC00FCFC00000000FDFFFFFFFFFDFFFFFFFFFFFFFFFFFFFFFFFFFFFFFFFCFCFCFCFCFCFCFCFCFCFCFDFFFFFFFFFCFFFFFFFFFFFFFFFFFFFF
310
FFFFFFFFFFFFFFFFFFFFFFFFFFFFFFFFFCFFFFFFFFFDFFFFFFFFFFFFFFFFFFFFFFFFFFFFFFFFFFFFFFFFFFFFFFFFFFFFFDFFFFFFFFFDFFFFFFFFFFFFFFFFFFFFFFFFFFFFFFFFFFFFFFFFFFFFFFFFFFFFFDFFFFFFFFFCFFFFFFFFFFFFFFFFFFFFFFFFFFFFFFFFFFFFFFFFFFFFFFFFFFFFFCFFFFFFFFFDFFFFFFFFFFFFFFFFFF
310
FFFFFFFFFFFFFFFFFFFFFFFFFFFFFFFFFFFDFFFFFFFFFDFFFFFFFFFFFFFFFFFFFFFFFFFFFFFFFFFFFFFFFFFFFFFFFFFFFFFCFFFFFFFFFDFFFFFFFFFFFFFFFFFFFFFFFFFFFFFFFFFFFFFFFFFFFFFFFFFFFFFDFFFFFFFFFDFFFFFFFFFFFFFFFFFFFFFFFFFFFFFFFFFFFFFFFFFFFFFFFFFFFFFDFFFFFFFFFCFFFFFFFFFFFFFFFF
310
FFFFFFFFFFFFFFFFFFFFFFFFFFFFFFFFFFFFFCFFFFFFFFFDFFFFFFFFFFFFFFFFFFFFFFFFFFFFFFFFFFFFFFFFFFFFFFFFFFFFFDFFFFFFFFFDFFFFFFFFFFFFFFFFFFFFFFFFFFFFFFFFFFFFFFFFFFFFFFFFFFFFFDFFFFFFFFFCFFFFFFFFFFFFFFFFFFFFFFFFFFFFFFFFFFFFFFFFFFFFFFFFFFFFFCFFFFFFFFFDFFFFFFFFFFFFFF
310
FFFFFFFFFFFFFFFFFFFFFFFFFFFFFFFFFFFFFFFDFFFFFFFFFDFFFFFFFFFFFFFFFFFFFFFFFFFFFFFFFFFFFFFFFFFFFFFFFFFFFFFDFFFFFFFFFCFFFFFFFFFFFFFFFFFFFFFFFFFFFDFFFCFCFCFCFCFCFCFCFCFCFCFCFFFFFFA4A4FCFDFDFCFDFCFDFDFDFDFCFDFCFDFDFC00FDFDFDFCFDFCFCFCFCA4A4FFFFFFFFFFFFFFFFFFFF
310
FFFFFFFFFFFFFFFFFFFFFFFFFFFFFFFFFFFFFFFFFFFFFFFFFFFFFFFFFFFFFFFFFFFFFFFFFFFFFFFFFFFFFFFFFFFFFFFFFFFFFFFFFFFFFFFFFFFFFFFFFFFFFFFFFFFFFFFFFFFFFFFFFFFFFFFFFFFFFFFFFFFFFFFFFFFFFFFFFFFFFFFFFFFFFFFFFFFFFFFFFFFFFFFFFFFFFFFFFFFFFFFFFFFFFFFFFFFFFFFFFFFFFFFFFFFFFF
310
FFFFFFFFFFFFFFFFFFFFFFFFFFFFFFFFFFFFFFFFFFFFFFFFFFFFFFFFFFFFFFFFFFFFFFFFFFFFFFFFFFFFFFFFFFFFFFFFFFFFFFFFFFFFFFFF
1001
ACAD
1000
DesignCenter Data
1002
{
1070
     1
1070
     4
1002
}
  0
BLOCK_RECORD
  5
3EA
330
1
100
AcDbSymbolTableRecord
100
AcDbBlockTableRecord
  2
DEST-LOC
340
0
102
{BLKREFS
331
808
331
B46
102
}
  0
BLOCK_RECORD
  5
3EF
330
1
100
AcDbSymbolTableRecord
100
AcDbBlockTableRecord
  2
A$C17763048
340
0
102
{BLKREFS
331
409
102
}
  0
BLOCK_RECORD
  5
407
330
1
100
AcDbSymbolTableRecord
100
AcDbBlockTableRecord
  2
A$C2E6E7F1B
340
0
102
{BLKREFS
331
40D
102
}
  0
BLOCK_RECORD
  5
40B
330
1
100
AcDbSymbolTableRecord
100
AcDbBlockTableRecord
  2
A$C41FF31FA
340
0
102
{BLKREFS
331
411
102
}
  0
BLOCK_RECORD
  5
40F
330
1
100
AcDbSymbolTableRecord
100
AcDbBlockTableRecord
  2
A$C100B143C
340
0
102
{BLKREFS
331
89C
102
}
  0
ENDTAB
  0
ENDSEC
  0
SECTION
  2
BLOCKS
  0
BLOCK
  5
20
330
1F
100
AcDbEntity
  8
0
100
AcDbBlockBegin
  2
*Model_Space
 70
     0
 10
0.0
 20
0.0
 30
0.0
  3
*Model_Space
  1

  0
ENDBLK
  5
21
330
1F
100
AcDbEntity
  8
0
100
AcDbBlockEnd
  0
BLOCK
  5
BDE
330
BDC
100
AcDbEntity
 67
     1
  8
0
100
AcDbBlockBegin
  2
*Paper_Space
 70
     0
 10
0.0
 20
0.0
 30
0.0
  3
*Paper_Space
  1

  0
ENDBLK
  5
BDF
330
BDC
100
AcDbEntity
 67
     1
  8
0
100
AcDbBlockEnd
  0
BLOCK
  5
BD
330
31
100
AcDbEntity
  8
0
100
AcDbBlockBegin
  2
ISO A3 title block
 70
     2
 10
0.0
 20
0.0
 30
0.0
  3
ISO A3 title block
  1

  4
ISO A3 title block and attributes
  0
LINE
  5
2FE
330
31
100
AcDbEntity
  8
FRAME 070
100
AcDbLine
 10
10.0
 20
10.0
 30
0.0
 11
410.0
 21
10.0
 31
0.0
  0
LINE
  5
2FF
330
31
100
AcDbEntity
  8
FRAME 070
100
AcDbLine
 10
410.0
 20
287.0
 30
0.0
 11
10.0
 21
287.0
 31
0.0
  0
LINE
  5
300
330
31
100
AcDbEntity
  8
FRAME 050
100
AcDbLine
 10
160.0
 20
5.0
 30
0.0
 11
260.0
 21
5.0
 31
0.0
  0
LINE
  5
301
330
31
100
AcDbEntity
  8
FRAME 050
100
AcDbLine
 10
207.5
 20
12.5
 30
0.0
 11
212.5
 21
12.5
 31
0.0
  0
LINE
  5
302
330
31
100
AcDbEntity
  8
FRAME 050
100
AcDbLine
 10
212.5
 20
12.5
 30
0.0
 11
210.0
 21
7.5
 31
0.0
  0
LINE
  5
303
330
31
100
AcDbEntity
  8
FRAME 070
100
AcDbLine
 10
10.0
 20
287.0
 30
0.0
 11
10.0
 21
10.0
 31
0.0
  0
LINE
  5
304
330
31
100
AcDbEntity
  8
FRAME 050
100
AcDbLine
 10
12.5
 20
151.0
 30
0.0
 11
12.5
 21
146.0
 31
0.0
  0
LINE
  5
305
330
31
100
AcDbEntity
  8
FRAME 050
100
AcDbLine
 10
7.5
 20
148.5
 30
0.0
 11
12.5
 21
151.0
 31
0.0
  0
LINE
  5
306
330
31
100
AcDbEntity
  8
FRAME 200
100
AcDbLine
 10
0.0
 20
0.0
 30
0.0
 11
0.0
 21
10.0
 31
0.0
  0
LINE
  5
307
330
31
100
AcDbEntity
  8
FRAME 200
100
AcDbLine
 10
0.0
 20
0.0
 30
0.0
 11
10.0
 21
0.0
 31
0.0
  0
TEXT
  5
308
330
31
100
AcDbEntity
  8
FRAME 050
100
AcDbText
 10
6.099999999999999
 20
31.5
 30
0.0
 40
4.0
  1
F
  7
ISO Proportional
 72
     4
 11
7.5
 21
33.5
 31
0.0
100
AcDbText
  0
TEXT
  5
309
330
31
100
AcDbEntity
  8
FRAME 050
100
AcDbText
 10
34.0
 20
5.5
 30
0.0
 40
4.0
  1
1
  7
ISO Proportional
 72
     4
 11
35.0
 21
7.5
 31
0.0
100
AcDbText
  0
LINE
  5
30A
330
31
100
AcDbEntity
  8
FRAME 050
100
AcDbLine
 10
60.0
 20
5.0
 30
0.0
 11
60.0
 21
10.0
 31
0.0
  0
LINE
  5
30B
330
31
100
AcDbEntity
  8
FRAME 050
100
AcDbLine
 10
5.0
 20
148.5
 30
0.0
 11
15.0
 21
148.5
 31
0.0
  0
TEXT
  5
30C
330
31
100
AcDbEntity
  8
FRAME 050
100
AcDbText
 10
6.099999999999999
 20
77.5
 30
0.0
 40
4.0
  1
E
  7
ISO Proportional
 72
     4
 11
7.5
 21
79.5
 31
0.0
100
AcDbText
  0
LINE
  5
30D
330
31
100
AcDbEntity
  8
FRAME 050
100
AcDbLine
 10
10.0
 20
56.5
 30
0.0
 11
5.0
 21
56.5
 31
0.0
  0
TEXT
  5
30E
330
31
100
AcDbEntity
  8
FRAME 050
100
AcDbText
 10
5.786091270347398
 20
123.5
 30
0.0
 40
4.0
  1
D
  7
ISO Proportional
 72
     4
 11
7.5
 21
125.5
 31
0.0
100
AcDbText
  0
LINE
  5
30F
330
31
100
AcDbEntity
  8
FRAME 050
100
AcDbLine
 10
10.0
 20
102.5
 30
0.0
 11
5.0
 21
102.5
 31
0.0
  0
LINE
  5
310
330
31
100
AcDbEntity
  8
FRAME 050
100
AcDbLine
 10
12.5
 20
146.0
 30
0.0
 11
7.5
 21
148.5
 31
0.0
  0
TEXT
  5
311
330
31
100
AcDbEntity
  8
FRAME 050
100
AcDbText
 10
133.5171572875254
 20
5.582842712474614
 30
0.0
 40
4.0
  1
3
  7
ISO Proportional
 72
     4
 11
135.0
 21
7.5
 31
0.0
100
AcDbText
  0
TEXT
  5
312
330
31
100
AcDbEntity
  8
FRAME 050
100
AcDbText
 10
83.53066929133857
 20
5.399606299212598
 30
0.0
 40
4.0
  1
2
  7
ISO Proportional
 72
     4
 11
85.0
 21
7.5
 31
0.0
100
AcDbText
  0
LINE
  5
313
330
31
100
AcDbEntity
  8
FRAME 050
100
AcDbLine
 10
110.0
 20
5.0
 30
0.0
 11
110.0
 21
10.0
 31
0.0
  0
LINE
  5
314
330
31
100
AcDbEntity
  8
FRAME 050
100
AcDbLine
 10
210.0
 20
10.0
 30
0.0
 11
210.0
 21
5.0
 31
0.0
  0
LINE
  5
315
330
31
100
AcDbEntity
  8
FRAME 050
100
AcDbLine
 10
160.0
 20
5.0
 30
0.0
 11
160.0
 21
10.0
 31
0.0
  0
LINE
  5
316
330
31
100
AcDbEntity
  8
FRAME 050
100
AcDbLine
 10
170.0
 20
5.0
 30
0.0
 11
170.0
 21
10.0
 31
0.0
  0
LINE
  5
317
330
31
100
AcDbEntity
  8
FRAME 050
100
AcDbLine
 10
180.0
 20
5.0
 30
0.0
 11
180.0
 21
10.0
 31
0.0
  0
LINE
  5
318
330
31
100
AcDbEntity
  8
FRAME 050
100
AcDbLine
 10
190.0
 20
5.0
 30
0.0
 11
190.0
 21
10.0
 31
0.0
  0
LINE
  5
319
330
31
100
AcDbEntity
  8
FRAME 050
100
AcDbLine
 10
200.0
 20
5.0
 30
0.0
 11
200.0
 21
10.0
 31
0.0
  0
LINE
  5
31A
330
31
100
AcDbEntity
  8
FRAME 050
100
AcDbLine
 10
210.0
 20
7.5
 30
0.0
 11
207.5
 21
12.5
 31
0.0
  0
LINE
  5
31B
330
31
100
AcDbEntity
  8
FRAME 050
100
AcDbLine
 10
210.0
 20
10.0
 30
0.0
 11
210.0
 21
15.0
 31
0.0
  0
TEXT
  5
31C
330
31
100
AcDbEntity
  8
FRAME 050
100
AcDbText
 10
6.193198051533947
 20
169.5
 30
0.0
 40
4.0
  1
C
  7
ISO Proportional
 72
     4
 11
7.5
 21
171.5
 31
0.0
100
AcDbText
  0
LINE
  5
31D
330
31
100
AcDbEntity
  8
FRAME 050
100
AcDbLine
 10
10.0
 20
194.5
 30
0.0
 11
5.0
 21
194.5
 31
0.0
  0
TEXT
  5
31E
330
31
100
AcDbEntity
  8
FRAME 050
100
AcDbText
 10
5.899999999999996
 20
215.5
 30
0.0
 40
4.0
  1
B
  7
ISO Proportional
 72
     4
 11
7.5
 21
217.5
 31
0.0
100
AcDbText
  0
LINE
  5
31F
330
31
100
AcDbEntity
  8
FRAME 050
100
AcDbLine
 10
10.0
 20
240.5
 30
0.0
 11
5.0
 21
240.5
 31
0.0
  0
LINE
  5
320
330
31
100
AcDbEntity
  8
FRAME 200
100
AcDbLine
 10
0.0
 20
297.0
 30
0.0
 11
0.0
 21
287.0
 31
0.0
  0
TEXT
  5
321
330
31
100
AcDbEntity
  8
FRAME 050
100
AcDbText
 10
5.699999999999999
 20
261.5
 30
0.0
 40
4.0
  1
A
  7
ISO Proportional
 72
     4
 11
7.5
 21
263.5
 31
0.0
100
AcDbText
  0
LINE
  5
322
330
31
100
AcDbEntity
  8
FRAME 200
100
AcDbLine
 10
10.0
 20
297.0
 30
0.0
 11
0.0
 21
297.0
 31
0.0
  0
LINE
  5
323
330
31
100
AcDbEntity
  8
FRAME 050
100
AcDbLine
 10
60.0
 20
287.0
 30
0.0
 11
60.0
 21
292.0
 31
0.0
  0
TEXT
  5
324
330
31
100
AcDbEntity
  8
FRAME 050
100
AcDbText
 10
34.0
 20
287.5
 30
0.0
 40
4.0
  1
1
  7
ISO Proportional
 72
     4
 11
35.0
 21
289.5
 31
0.0
100
AcDbText
  0
LINE
  5
325
330
31
100
AcDbEntity
  8
FRAME 050
100
AcDbLine
 10
110.0
 20
287.0
 30
0.0
 11
110.0
 21
292.0
 31
0.0
  0
TEXT
  5
326
330
31
100
AcDbEntity
  8
FRAME 050
100
AcDbText
 10
83.53066929133857
 20
287.3996062992126
 30
0.0
 40
4.0
  1
2
  7
ISO Proportional
 72
     4
 11
85.0
 21
289.5
 31
0.0
100
AcDbText
  0
TEXT
  5
327
330
31
100
AcDbEntity
  8
FRAME 050
100
AcDbText
 10
133.5171572875254
 20
287.5828427124746
 30
0.0
 40
4.0
  1
3
  7
ISO Proportional
 72
     4
 11
135.0
 21
289.5
 31
0.0
100
AcDbText
  0
LINE
  5
328
330
31
100
AcDbEntity
  8
FRAME 050
100
AcDbLine
 10
210.0
 20
282.0
 30
0.0
 11
210.0
 21
292.0
 31
0.0
  0
LINE
  5
329
330
31
100
AcDbEntity
  8
FRAME 050
100
AcDbLine
 10
160.0
 20
287.0
 30
0.0
 11
160.0
 21
292.0
 31
0.0
  0
TEXT
  5
32A
330
31
100
AcDbEntity
  8
FRAME 050
100
AcDbText
 10
183.4
 20
287.5
 30
0.0
 40
4.0
  1
4
  7
ISO Proportional
 72
     4
 11
185.0
 21
289.5
 31
0.0
100
AcDbText
  0
LINE
  5
32B
330
31
100
AcDbEntity
  8
FRAME 070
100
AcDbLine
 10
410.0
 20
10.0
 30
0.0
 11
410.0
 21
287.0
 31
0.0
  0
ATTDEF
  5
32C
330
31
100
AcDbEntity
  8
FRAME 025
100
AcDbText
 10
337.0
 20
31.75
 30
0.0
 40
2.5
  1
XXX
  7
ISO Proportional
 11
337.0
 21
33.0
 31
0.0
100
AcDbAttributeDefinition
  3
File name
  2
FILENAME
 70
     8
 74
     2
  0
TEXT
  5
32D
330
31
100
AcDbEntity
  8
FRAME 025
100
AcDbText
 10
337.0
 20
35.75
 30
0.0
 40
2.5
  1
File name
  7
ISO Proportional
 11
337.0
 21
37.0
 31
0.0
100
AcDbText
 73
     2
  0
LINE
  5
32E
330
31
100
AcDbEntity
  8
FRAME 070
100
AcDbLine
 10
315.0
 20
20.0
 30
0.0
 11
410.0
 21
20.0
 31
0.0
  0
LINE
  5
32F
330
31
100
AcDbEntity
  8
FRAME 070
100
AcDbLine
 10
240.0
 20
30.0
 30
0.0
 11
410.0
 21
30.0
 31
0.0
  0
LINE
  5
330
330
31
100
AcDbEntity
  8
FRAME 070
100
AcDbLine
 10
240.0
 20
40.0
 30
0.0
 11
410.0
 21
40.0
 31
0.0
  0
LINE
  5
331
330
31
100
AcDbEntity
  8
FRAME 070
100
AcDbLine
 10
240.0
 20
46.0
 30
0.0
 11
410.0
 21
46.0
 31
0.0
  0
TEXT
  5
332
330
31
100
AcDbEntity
  8
FRAME 025
100
AcDbText
 10
274.0
 20
41.74999999999999
 30
0.0
 40
2.5
  1
Title/Name, designation, material, dimension etc
  7
ISO Proportional
 11
274.0
 21
43.0
 31
0.0
100
AcDbText
 73
     2
  0
ATTDEF
  5
333
330
31
100
AcDbEntity
  8
FRAME 050
100
AcDbText
 10
343.65
 20
13.5
 30
0.0
 40
3.0
  1
X
  7
ISO Proportional
 72
     4
 11
345.0
 21
15.0
 31
0.0
100
AcDbAttributeDefinition
  3
Drawing number
  2
DRAWING_NUMBER
 70
     8
  0
TEXT
  5
334
330
31
100
AcDbEntity
  8
FRAME 025
100
AcDbText
 10
274.0
 20
35.75
 30
0.0
 40
2.5
  1
Checked by
  7
ISO Proportional
 11
274.0
 21
37.0
 31
0.0
100
AcDbText
 73
     2
  0
ATTDEF
  5
335
330
31
100
AcDbEntity
  8
FRAME 050
100
AcDbText
 10
270.75
 20
17.5
 30
0.0
 40
5.0
  1
XXX
  7
ISO Proportional
 72
     4
 11
277.5
 21
20.0
 31
0.0
100
AcDbAttributeDefinition
  3
Owner
  2
OWNER
 70
     8
  0
ATTDEF
  5
336
330
31
100
AcDbEntity
  8
FRAME 025
100
AcDbText
 10
274.0
 20
31.75
 30
0.0
 40
2.5
  1
XXX
  7
ISO Proportional
 11
274.0
 21
33.0
 31
0.0
100
AcDbAttributeDefinition
  3
Checked by
  2
CHECKED_BY
 70
     8
 74
     2
  0
LINE
  5
337
330
31
100
AcDbEntity
  8
FRAME 050
100
AcDbLine
 10
260.0
 20
5.0
 30
0.0
 11
260.0
 21
10.0
 31
0.0
  0
LINE
  5
338
330
31
100
AcDbEntity
  8
FRAME 050
100
AcDbLine
 10
220.0
 20
5.0
 30
0.0
 11
220.0
 21
10.0
 31
0.0
  0
LINE
  5
339
330
31
100
AcDbEntity
  8
FRAME 050
100
AcDbLine
 10
230.0
 20
5.0
 30
0.0
 11
230.0
 21
10.0
 31
0.0
  0
LINE
  5
33A
330
31
100
AcDbEntity
  8
FRAME 050
100
AcDbLine
 10
240.0
 20
5.0
 30
0.0
 11
240.0
 21
10.0
 31
0.0
  0
LINE
  5
33B
330
31
100
AcDbEntity
  8
FRAME 050
100
AcDbLine
 10
250.0
 20
5.0
 30
0.0
 11
250.0
 21
10.0
 31
0.0
  0
TEXT
  5
33C
330
31
100
AcDbEntity
  8
FRAME 025
100
AcDbText
 10
242.0
 20
41.74999999999999
 30
0.0
 40
2.5
  1
Itemref
  7
ISO Proportional
 11
242.0
 21
43.0
 31
0.0
100
AcDbText
 73
     2
  0
TEXT
  5
33D
330
31
100
AcDbEntity
  8
FRAME 025
100
AcDbText
 10
242.0
 20
35.75
 30
0.0
 40
2.5
  1
Designed by
  7
ISO Proportional
 11
242.0
 21
37.0
 31
0.0
100
AcDbText
 73
     2
  0
ATTDEF
  5
33E
330
31
100
AcDbEntity
  8
FRAME 025
100
AcDbText
 10
242.0
 20
31.75
 30
0.0
 40
2.5
  1
XXX
  7
ISO Proportional
 11
242.0
 21
33.0
 31
0.0
100
AcDbAttributeDefinition
  3
Designed by
  2
DESIGNED_BY
 70
     8
 74
     2
  0
LINE
  5
33F
330
31
100
AcDbEntity
  8
FRAME 070
100
AcDbLine
 10
240.0
 20
10.0
 30
0.0
 11
240.0
 21
40.0
 31
0.0
  0
LINE
  5
340
330
31
100
AcDbEntity
  8
FRAME 070
100
AcDbLine
 10
240.0
 20
40.0
 30
0.0
 11
240.0
 21
46.0
 31
0.0
  0
LINE
  5
341
330
31
100
AcDbEntity
  8
FRAME 070
100
AcDbLine
 10
272.0
 20
30.0
 30
0.0
 11
272.0
 21
40.0
 31
0.0
  0
TEXT
  5
342
330
31
100
AcDbEntity
  8
FRAME 025
100
AcDbText
 10
257.0
 20
41.74999999999999
 30
0.0
 40
2.5
  1
Quantity
  7
ISO Proportional
 11
257.0
 21
43.0
 31
0.0
100
AcDbText
 73
     2
  0
LINE
  5
343
330
31
100
AcDbEntity
  8
FRAME 070
100
AcDbLine
 10
255.0
 20
40.0
 30
0.0
 11
255.0
 21
46.0
 31
0.0
  0
LINE
  5
344
330
31
100
AcDbEntity
  8
FRAME 070
100
AcDbLine
 10
272.0
 20
40.0
 30
0.0
 11
272.0
 21
46.0
 31
0.0
  0
TEXT
  5
345
330
31
100
AcDbEntity
  8
FRAME 050
100
AcDbText
 10
333.6
 20
5.5
 30
0.0
 40
4.0
  1
7
  7
ISO Proportional
 72
     4
 11
335.0
 21
7.5
 31
0.0
100
AcDbText
  0
TEXT
  5
346
330
31
100
AcDbEntity
  8
FRAME 050
100
AcDbText
 10
283.6204724409449
 20
5.410236220472441
 30
0.0
 40
4.0
  1
6
  7
ISO Proportional
 72
     4
 11
285.0
 21
7.5
 31
0.0
100
AcDbText
  0
LINE
  5
347
330
31
100
AcDbEntity
  8
FRAME 050
100
AcDbLine
 10
310.0
 20
5.0
 30
0.0
 11
310.0
 21
10.0
 31
0.0
  0
TEXT
  5
348
330
31
100
AcDbEntity
  8
FRAME 025
100
AcDbText
 10
299.0
 20
35.75
 30
0.0
 40
2.5
  1
Approved by - date
  7
ISO Proportional
 11
299.0
 21
37.0
 31
0.0
100
AcDbText
 73
     2
  0
ATTDEF
  5
349
330
31
100
AcDbEntity
  8
FRAME 025
100
AcDbText
 10
299.0
 20
31.75
 30
0.0
 40
2.5
  1
XXX - 00/00/00
  7
ISO Proportional
 11
299.0
 21
33.0
 31
0.0
100
AcDbAttributeDefinition
  3
Approved by - Date
  2
APPROVED_BY_DATE
 70
     8
 74
     2
  0
LINE
  5
34A
330
31
100
AcDbEntity
  8
FRAME 070
100
AcDbLine
 10
297.0
 20
30.0
 30
0.0
 11
297.0
 21
40.0
 31
0.0
  0
LINE
  5
34B
330
31
100
AcDbEntity
  8
FRAME 070
100
AcDbLine
 10
335.0
 20
30.0
 30
0.0
 11
335.0
 21
40.0
 31
0.0
  0
LINE
  5
34C
330
31
100
AcDbEntity
  8
FRAME 070
100
AcDbLine
 10
315.0
 20
10.0
 30
0.0
 11
315.0
 21
30.0
 31
0.0
  0
TEXT
  5
34D
330
31
100
AcDbEntity
  8
FRAME 050
100
AcDbText
 10
383.6
 20
5.5
 30
0.0
 40
4.0
  1
8
  7
ISO Proportional
 72
     4
 11
385.0
 21
7.5
 31
0.0
100
AcDbText
  0
LINE
  5
34E
330
31
100
AcDbEntity
  8
FRAME 050
100
AcDbLine
 10
360.0
 20
5.0
 30
0.0
 11
360.0
 21
10.0
 31
0.0
  0
TEXT
  5
34F
330
31
100
AcDbEntity
  8
FRAME 025
100
AcDbText
 10
362.0
 20
41.74999999999999
 30
0.0
 40
2.5
  1
Article No./Reference
  7
ISO Proportional
 11
362.0
 21
43.0
 31
0.0
100
AcDbText
 73
     2
  0
LINE
  5
350
330
31
100
AcDbEntity
  8
FRAME 070
100
AcDbLine
 10
360.0
 20
30.0
 30
0.0
 11
360.0
 21
40.0
 31
0.0
  0
ATTDEF
  5
351
330
31
100
AcDbEntity
  8
FRAME 025
100
AcDbText
 10
362.0
 20
31.75
 30
0.0
 40
2.5
  1
00/00/00
  7
ISO Proportional
 11
362.0
 21
33.0
 31
0.0
100
AcDbAttributeDefinition
  3
Date
  2
DATE
 70
     8
 74
     2
  0
ATTDEF
  5
352
330
31
100
AcDbEntity
  8
FRAME 050
100
AcDbText
 10
355.75
 20
22.5
 30
0.0
 40
5.0
  1
XXX
  7
ISO Proportional
 72
     4
 11
362.5
 21
25.0
 31
0.0
100
AcDbAttributeDefinition
  3
Title / Name
  2
TITLE
 70
     8
  0
LINE
  5
353
330
31
100
AcDbEntity
  8
FRAME 070
100
AcDbLine
 10
360.0
 20
40.0
 30
0.0
 11
360.0
 21
46.0
 31
0.0
  0
TEXT
  5
354
330
31
100
AcDbEntity
  8
FRAME 025
100
AcDbText
 10
362.0
 20
35.75
 30
0.0
 40
2.5
  1
Date
  7
ISO Proportional
 11
362.0
 21
37.0
 31
0.0
100
AcDbText
 73
     2
  0
LINE
  5
355
330
31
100
AcDbEntity
  8
FRAME 070
100
AcDbLine
 10
390.0
 20
30.0
 30
0.0
 11
390.0
 21
40.0
 31
0.0
  0
ATTDEF
  5
356
330
31
100
AcDbEntity
  8
FRAME 025
100
AcDbText
 10
392.0
 20
31.75
 30
0.0
 40
2.5
  1
1:1
  7
ISO Proportional
 11
392.0
 21
33.0
 31
0.0
100
AcDbAttributeDefinition
  3
Scale
  2
SCALE
 70
     8
 74
     2
  0
TEXT
  5
357
330
31
100
AcDbEntity
  8
FRAME 025
100
AcDbText
 10
377.0
 20
15.75
 30
0.0
 40
2.5
  1
Edition
  7
ISO Proportional
 11
377.0
 21
17.0
 31
0.0
100
AcDbText
 73
     2
  0
ATTDEF
  5
358
330
31
100
AcDbEntity
  8
FRAME 025
100
AcDbText
 10
377.0
 20
11.75
 30
0.0
 40
2.5
  1
0
  7
ISO Proportional
 11
377.0
 21
13.0
 31
0.0
100
AcDbAttributeDefinition
  3
Edition
  2
EDITION
 70
     8
 74
     2
  0
LINE
  5
359
330
31
100
AcDbEntity
  8
FRAME 070
100
AcDbLine
 10
375.0
 20
10.0
 30
0.0
 11
375.0
 21
20.0
 31
0.0
  0
LINE
  5
35A
330
31
100
AcDbEntity
  8
FRAME 070
100
AcDbLine
 10
390.0
 20
10.0
 30
0.0
 11
390.0
 21
20.0
 31
0.0
  0
TEXT
  5
35B
330
31
100
AcDbEntity
  8
FRAME 025
100
AcDbText
 10
392.0
 20
15.75
 30
0.0
 40
2.5
  1
Sheet
  7
ISO Proportional
 11
392.0
 21
17.0
 31
0.0
100
AcDbText
 73
     2
  0
ATTDEF
  5
35C
330
31
100
AcDbEntity
  8
FRAME 025
100
AcDbText
 10
392.0
 20
11.75
 30
0.0
 40
2.5
  1
1/1
  7
ISO Proportional
 11
392.0
 21
13.0
 31
0.0
100
AcDbAttributeDefinition
  3
Sheet
  2
SHEET
 70
     8
 74
     2
  0
TEXT
  5
35D
330
31
100
AcDbEntity
  8
FRAME 025
100
AcDbText
 10
392.0
 20
35.75
 30
0.0
 40
2.5
  1
Scale
  7
ISO Proportional
 11
392.0
 21
37.0
 31
0.0
100
AcDbText
 73
     2
  0
LINE
  5
35E
330
31
100
AcDbEntity
  8
FRAME 200
100
AcDbLine
 10
420.0
 20
0.0
 30
0.0
 11
420.0
 21
10.0
 31
0.0
  0
LINE
  5
35F
330
31
100
AcDbEntity
  8
FRAME 200
100
AcDbLine
 10
420.0
 20
0.0
 30
0.0
 11
410.0
 21
0.0
 31
0.0
  0
TEXT
  5
360
330
31
100
AcDbEntity
  8
FRAME 050
100
AcDbText
 10
411.1
 20
31.5
 30
0.0
 40
4.0
  1
F
  7
ISO Proportional
 72
     4
 11
412.5
 21
33.5
 31
0.0
100
AcDbText
  0
LINE
  5
361
330
31
100
AcDbEntity
  8
FRAME 050
100
AcDbLine
 10
405.0
 20
148.5
 30
0.0
 11
415.0
 21
148.5
 31
0.0
  0
TEXT
  5
362
330
31
100
AcDbEntity
  8
FRAME 050
100
AcDbText
 10
411.1
 20
77.5
 30
0.0
 40
4.0
  1
E
  7
ISO Proportional
 72
     4
 11
412.5
 21
79.5
 31
0.0
100
AcDbText
  0
LINE
  5
363
330
31
100
AcDbEntity
  8
FRAME 050
100
AcDbLine
 10
415.0
 20
56.5
 30
0.0
 11
410.0
 21
56.5
 31
0.0
  0
TEXT
  5
364
330
31
100
AcDbEntity
  8
FRAME 050
100
AcDbText
 10
410.7860912703474
 20
123.5
 30
0.0
 40
4.0
  1
D
  7
ISO Proportional
 72
     4
 11
412.5
 21
125.5
 31
0.0
100
AcDbText
  0
LINE
  5
365
330
31
100
AcDbEntity
  8
FRAME 050
100
AcDbLine
 10
415.0
 20
102.5
 30
0.0
 11
410.0
 21
102.5
 31
0.0
  0
LINE
  5
366
330
31
100
AcDbEntity
  8
FRAME 070
100
AcDbLine
 10
240.0
 20
281.0
 30
0.0
 11
410.0
 21
281.0
 31
0.0
  0
LINE
  5
367
330
31
100
AcDbEntity
  8
FRAME 050
100
AcDbLine
 10
260.0
 20
287.0
 30
0.0
 11
260.0
 21
292.0
 31
0.0
  0
TEXT
  5
368
330
31
100
AcDbEntity
  8
FRAME 050
100
AcDbText
 10
233.5171572875254
 20
287.5828427124746
 30
0.0
 40
4.0
  1
5
  7
ISO Proportional
 72
     4
 11
235.0
 21
289.5
 31
0.0
100
AcDbText
  0
TEXT
  5
369
330
31
100
AcDbEntity
  8
FRAME 025
100
AcDbText
 10
242.0
 20
282.75
 30
0.0
 40
2.5
  1
RevNo
  7
ISO Proportional
 11
242.0
 21
284.0
 31
0.0
100
AcDbText
 73
     2
  0
LINE
  5
36A
330
31
100
AcDbEntity
  8
FRAME 070
100
AcDbLine
 10
240.0
 20
281.0
 30
0.0
 11
240.0
 21
287.0
 31
0.0
  0
TEXT
  5
36B
330
31
100
AcDbEntity
  8
FRAME 025
100
AcDbText
 10
254.0
 20
282.75
 30
0.0
 40
2.5
  1
Revision note
  7
ISO Proportional
 11
254.0
 21
284.0
 31
0.0
100
AcDbText
 73
     2
  0
LINE
  5
36C
330
31
100
AcDbEntity
  8
FRAME 070
100
AcDbLine
 10
252.0
 20
281.0
 30
0.0
 11
252.0
 21
287.0
 31
0.0
  0
LINE
  5
36D
330
31
100
AcDbEntity
  8
FRAME 050
100
AcDbLine
 10
310.0
 20
287.0
 30
0.0
 11
310.0
 21
292.0
 31
0.0
  0
TEXT
  5
36E
330
31
100
AcDbEntity
  8
FRAME 050
100
AcDbText
 10
283.6204724409449
 20
287.4102362204724
 30
0.0
 40
4.0
  1
6
  7
ISO Proportional
 72
     4
 11
285.0
 21
289.5
 31
0.0
100
AcDbText
  0
TEXT
  5
36F
330
31
100
AcDbEntity
  8
FRAME 050
100
AcDbText
 10
333.6
 20
287.5
 30
0.0
 40
4.0
  1
7
  7
ISO Proportional
 72
     4
 11
335.0
 21
289.5
 31
0.0
100
AcDbText
  0
TEXT
  5
370
330
31
100
AcDbEntity
  8
FRAME 050
100
AcDbText
 10
411.1931980515339
 20
169.5
 30
0.0
 40
4.0
  1
C
  7
ISO Proportional
 72
     4
 11
412.5
 21
171.5
 31
0.0
100
AcDbText
  0
LINE
  5
371
330
31
100
AcDbEntity
  8
FRAME 050
100
AcDbLine
 10
415.0
 20
194.5
 30
0.0
 11
410.0
 21
194.5
 31
0.0
  0
TEXT
  5
372
330
31
100
AcDbEntity
  8
FRAME 050
100
AcDbText
 10
410.8999999999999
 20
215.5
 30
0.0
 40
4.0
  1
B
  7
ISO Proportional
 72
     4
 11
412.5
 21
217.5
 31
0.0
100
AcDbText
  0
LINE
  5
373
330
31
100
AcDbEntity
  8
FRAME 050
100
AcDbLine
 10
415.0
 20
240.5
 30
0.0
 11
410.0
 21
240.5
 31
0.0
  0
TEXT
  5
374
330
31
100
AcDbEntity
  8
FRAME 025
100
AcDbText
 10
397.0829939185055
 20
282.75
 30
0.0
 40
2.5
  1
Checked
  7
ISO Proportional
 11
397.0829939185055
 21
284.0
 31
0.0
100
AcDbText
 73
     2
  0
LINE
  5
375
330
31
100
AcDbEntity
  8
FRAME 050
100
AcDbLine
 10
360.0
 20
287.0
 30
0.0
 11
360.0
 21
292.0
 31
0.0
  0
TEXT
  5
376
330
31
100
AcDbEntity
  8
FRAME 050
100
AcDbText
 10
383.6
 20
287.5
 30
0.0
 40
4.0
  1
8
  7
ISO Proportional
 72
     4
 11
385.0
 21
289.5
 31
0.0
100
AcDbText
  0
TEXT
  5
377
330
31
100
AcDbEntity
  8
FRAME 025
100
AcDbText
 10
363.0
 20
282.75
 30
0.0
 40
2.5
  1
Date
  7
ISO Proportional
 11
363.0
 21
284.0
 31
0.0
100
AcDbText
 73
     2
  0
LINE
  5
378
330
31
100
AcDbEntity
  8
FRAME 070
100
AcDbLine
 10
361.0
 20
281.0
 30
0.0
 11
361.0
 21
287.0
 31
0.0
  0
TEXT
  5
379
330
31
100
AcDbEntity
  8
FRAME 025
100
AcDbText
 10
381.3609979728353
 20
282.75
 30
0.0
 40
2.5
  1
Signature
  7
ISO Proportional
 11
381.3609979728353
 21
284.0
 31
0.0
100
AcDbText
 73
     2
  0
LINE
  5
37A
330
31
100
AcDbEntity
  8
FRAME 070
100
AcDbLine
 10
381.0
 20
281.0
 30
0.0
 11
381.0
 21
287.0
 31
0.0
  0
LINE
  5
37B
330
31
100
AcDbEntity
  8
FRAME 070
100
AcDbLine
 10
396.0
 20
281.0
 30
0.0
 11
396.0
 21
287.0
 31
0.0
  0
LINE
  5
37C
330
31
100
AcDbEntity
  8
FRAME 200
100
AcDbLine
 10
420.0
 20
287.0
 30
0.0
 11
420.0
 21
297.0
 31
0.0
  0
TEXT
  5
37D
330
31
100
AcDbEntity
  8
FRAME 050
100
AcDbText
 10
410.7
 20
261.5
 30
0.0
 40
4.0
  1
A
  7
ISO Proportional
 72
     4
 11
412.5
 21
263.5
 31
0.0
100
AcDbText
  0
LINE
  5
37E
330
31
100
AcDbEntity
  8
FRAME 200
100
AcDbLine
 10
420.0
 20
297.0
 30
0.0
 11
410.0
 21
297.0
 31
0.0
  0
ENDBLK
  5
BE
330
31
100
AcDbEntity
  8
0
100
AcDbBlockEnd
  0
BLOCK
  5
3EB
330
3EA
100
AcDbEntity
  8
0
100
AcDbBlockBegin
  2
DEST-LOC
 70
     2
 10
0.0
 20
0.0
 30
0.0
  3
DEST-LOC
  1

  0
ATTDEF
  5
3EC
330
3EA
100
AcDbEntity
  8
0
100
AcDbText
 10
0.9958087850024114
 20
0.1508517374400071
 30
0.0
 40
1.0
  1
CAMERA
  7
ROMANS
 72
     4
 11
3.92438021357384
 21
0.6508517374400072
 31
0.0
100
AcDbAttributeDefinition
  3
DESTINAZIONE LOCALE
  2
DEST-LOC
 70
     0
  0
ATTDEF
  5
3ED
330
3EA
100
AcDbEntity
  8
0
100
AcDbText
 10
3.92438021357384
 20
-0.7720856503469804
 30
0.0
 40
1.0
  1

  7
ROMANS
 72
     4
 11
3.92438021357384
 21
-0.7720856503469804
 31
0.0
100
AcDbAttributeDefinition
  3
DESTINAZIONE LOCALE
  2
DEST-LOC
 70
     0
  0
ENDBLK
  5
3EE
330
3EA
100
AcDbEntity
  8
0
100
AcDbBlockEnd
  0
BLOCK
  5
3F0
330
3EF
100
AcDbEntity
  8
0
100
AcDbBlockBegin
  2
A$C17763048
 70
     0
 10
0.0
 20
0.0
 30
0.0
  3
A$C17763048
  1

  0
SOLID
  5
3F1
330
3EF
100
AcDbEntity
  8
2DMURI
100
AcDbTrace
 10
5.60957918836101
 20
5.467515743061085
 30
0.0
 11
5.101995967588948
 21
4.959932522289477
 31
0.0
 12
8.664765539846428
 22
4.95993252228925
 32
0.0
 13
8.664765539846428
 23
4.95993252228925
 33
0.0
  0
LINE
  5
3F2
330
3EF
100
AcDbEntity
  8
2DMURI
100
AcDbLine
 10
8.664765539846428
 20
4.95993252228925
 30
0.0
 11
5.609579188360783
 21
4.452349301517642
 31
0.0
  0
LINE
  5
3F3
330
3EF
100
AcDbEntity
  8
2DMURI
100
AcDbLine
 10
8.664765539846428
 20
4.95993252228925
 30
0.0
 11
5.609579188360783
 21
5.467515743061085
 31
0.0
  0
LINE
  5
3F4
330
3EF
100
AcDbEntity
  8
2DMURI
100
AcDbLine
 10
8.664765539846428
 20
4.95993252228925
 30
0.0
 11
1.539226395331695
 21
4.95993252228925
 31
0.0
  0
CIRCLE
  5
3F5
330
3EF
100
AcDbEntity
  8
2DMURI
100
AcDbCircle
 10
5.101995967588948
 20
4.959932522289477
 30
0.0
 40
3.56276957225742
  0
TEXT
  5
3F6
330
3EF
100
AcDbEntity
  8
INTESTAZIONE
 62
     4
100
AcDbText
 10
4.466421604715776
 20
9.036434716691246
 30
0.0
 40
1.140479999999999
  1
N
  7
ROMANC
100
AcDbText
  0
TEXT
  5
3F7
330
3EF
100
AcDbEntity
  8
INTESTAZIONE
 62
     4
100
AcDbText
 10
-0.0543078658575382
 20
4.354344868903922
 30
0.0
 40
1.140479999999999
  1
W
  7
ROMANC
100
AcDbText
  0
LINE
  5
3F8
330
3EF
100
AcDbEntity
  8
2DMURI
100
AcDbLine
 10
5.101995967588948
 20
8.52270209454673
 30
0.0
 11
5.609579188360783
 21
5.467515743061085
 31
0.0
  0
LINE
  5
3F9
330
3EF
100
AcDbEntity
  8
2DMURI
100
AcDbLine
 10
5.609579188360783
 20
5.467515743061085
 30
0.0
 11
4.59441274681734
 21
4.452349301517642
 31
0.0
  0
LINE
  5
3FA
330
3EF
100
AcDbEntity
  8
2DMURI
100
AcDbLine
 10
4.59441274681734
 20
5.467515743061085
 30
0.0
 11
5.609579188360783
 21
4.452349301517642
 31
0.0
  0
SOLID
  5
3FB
330
3EF
100
AcDbEntity
  8
2DMURI
100
AcDbTrace
 10
5.101995967588948
 20
8.52270209454673
 30
0.0
 11
4.59441274681734
 21
5.467515743061198
 31
0.0
 12
5.101995967588948
 22
4.959932522289477
 32
0.0
 13
5.101995967588948
 23
4.959932522289477
 33
0.0
  0
LINE
  5
3FC
330
3EF
100
AcDbEntity
  8
2DMURI
100
AcDbLine
 10
5.101995967588948
 20
8.52270209454673
 30
0.0
 11
4.59441274681734
 21
5.467515743061085
 31
0.0
  0
TEXT
  5
3FD
330
3EF
100
AcDbEntity
  8
INTESTAZIONE
 62
     4
100
AcDbText
 10
4.466421604715776
 20
0.0000002371240271
 30
0.0
 40
1.140479999999999
  1
S
  7
ROMANC
100
AcDbText
  0
LINE
  5
3FE
330
3EF
100
AcDbEntity
  8
2DMURI
100
AcDbLine
 10
5.101995967589175
 20
8.522702094546616
 30
0.0
 11
5.101995967588948
 21
1.397162950031997
 31
0.0
  0
SOLID
  5
3FF
330
3EF
100
AcDbEntity
  8
2DMURI
100
AcDbTrace
 10
5.101995967588948
 20
4.959932522289477
 30
0.0
 11
5.101995967588948
 21
1.39716295003177
 31
0.0
 12
5.60957918836101
 22
4.452349301517642
 32
0.0
 13
5.60957918836101
 23
4.452349301517642
 33
0.0
  0
LINE
  5
400
330
3EF
100
AcDbEntity
  8
2DMURI
100
AcDbLine
 10
5.101995967588948
 20
1.39716295003177
 30
0.0
 11
5.609579188360783
 21
4.452349301517642
 31
0.0
  0
LINE
  5
401
330
3EF
100
AcDbEntity
  8
2DMURI
100
AcDbLine
 10
5.101995967588948
 20
1.39716295003177
 30
0.0
 11
4.59441274681734
 21
4.452349301517642
 31
0.0
  0
SOLID
  5
402
330
3EF
100
AcDbEntity
  8
2DMURI
100
AcDbTrace
 10
1.539226395331695
 20
4.95993252228925
 30
0.0
 11
5.101995967588948
 21
4.959932522289477
 31
0.0
 12
4.59441274681734
 22
4.452349301517642
 32
0.0
 13
4.59441274681734
 23
4.452349301517642
 33
0.0
  0
LINE
  5
403
330
3EF
100
AcDbEntity
  8
2DMURI
100
AcDbLine
 10
1.539226395331581
 20
4.95993252228925
 30
0.0
 11
4.59441274681734
 21
4.452349301517642
 31
0.0
  0
LINE
  5
404
330
3EF
100
AcDbEntity
  8
2DMURI
100
AcDbLine
 10
1.539226395331581
 20
4.95993252228925
 30
0.0
 11
4.59441274681734
 21
5.467515743061085
 31
0.0
  0
TEXT
  5
405
330
3EF
100
AcDbEntity
  8
INTESTAZIONE
 62
     4
100
AcDbText
 10
8.963729399537044
 20
4.354344868903922
 30
0.0
 40
1.140479999999999
  1
E
  7
ROMANC
100
AcDbText
  0
ENDBLK
  5
406
330
3EF
100
AcDbEntity
  8
0
100
AcDbBlockEnd
  0
BLOCK
  5
408
330
407
100
AcDbEntity
  8
0
 48
3.0
100
AcDbBlockBegin
  2
A$C2E6E7F1B
 70
     0
 10
0.0
 20
0.0
 30
0.0
  3
A$C2E6E7F1B
  1

  0
INSERT
  5
409
330
407
100
AcDbEntity
  8
IMPIANTO-ELETTRICO
  6
Continuous
100
AcDbBlockReference
  2
A$C17763048
 10
3.295675189257508
 20
-2.776562177830783
 30
0.0
 50
36.85353549827385
  0
ENDBLK
  5
40A
330
407
100
AcDbEntity
  8
0
 48
3.0
100
AcDbBlockEnd
  0
BLOCK
  5
40C
330
40B
100
AcDbEntity
  8
0
 62
     2
100
AcDbBlockBegin
  2
A$C41FF31FA
 70
     0
 10
0.0
 20
0.0
 30
0.0
  3
A$C41FF31FA
  1

  0
INSERT
  5
40D
330
40B
100
AcDbEntity
  8
VV-F
  6
Continuous
 48
3.0
100
AcDbBlockReference
  2
A$C2E6E7F1B
 10
-0.0000550153636141
 20
0.0000199445785256
 30
0.0
  0
ENDBLK
  5
40E
330
40B
100
AcDbEntity
  8
0
 62
     2
100
AcDbBlockEnd
  0
BLOCK
  5
410
330
40F
100
AcDbEntity
  8
0
100
AcDbBlockBegin
  2
A$C100B143C
 70
     0
 10
0.0
 20
0.0
 30
0.0
  3
A$C100B143C
  1

  0
INSERT
  5
411
330
40F
100
AcDbEntity
  8
0
 62
     2
100
AcDbBlockReference
  2
A$C41FF31FA
 10
-24.3660406078161
 20
105.2953549630419
 30
0.0
 41
25.0
 42
25.0
 43
25.0
 50
323.0194881629344
  0
ENDBLK
  5
412
330
40F
100
AcDbEntity
  8
0
100
AcDbBlockEnd
  0
ENDSEC
  0
SECTION
  2
ENTITIES
  0
TEXT
  5
807
330
1F
100
AcDbEntity
  8
QUOTE-ANT
100
AcDbText
 10
2634.226501030007
 20
3447.848570852161
 30
0.0
 40
30.0
  1
+840
  7
ROMANS
100
AcDbText
  0
INSERT
  5
808
330
1F
100
AcDbEntity
  8
DEST-LOC
100
AcDbBlockReference
 66
     1
  2
DEST-LOC
 10
3297.550119278187
 20
2805.849104557803
 30
0.0
 41
20.0
 42
20.0
 43
20.0
  0
ATTRIB
  5
809
330
808
100
AcDbEntity
  8
0
100
AcDbText
 10
3322.466294978235
 20
2803.866139306602
 30
0.0
 40
30.0
  1
AULA
  7
ROMANS
 72
     4
 11
3376.037723549663
 21
2818.866139306602
 31
0.0
100
AcDbAttribute
  2
DEST-LOC
 70
     0
  0
ATTRIB
  5
80A
330
808
100
AcDbEntity
  8
0
100
AcDbText
 10
3376.037723549663
 20
2790.407391550862
 30
0.0
 40
20.0
  1

  7
ROMANS
 72
     4
 11
3376.037723549663
 21
2790.407391550862
 31
0.0
100
AcDbAttribute
  2
DEST-LOC
 70
     0
  0
SEQEND
  5
80B
330
808
100
AcDbEntity
  8
DEST-LOC
  0
LINE
  5
80C
330
1F
100
AcDbEntity
  8
0
 62
     1
100
AcDbLine
 10
3335.521621550274
 20
5707.320115984606
 30
0.0
 11
3253.567393015328
 21
5707.320115984606
 31
0.0
  0
LINE
  5
80D
330
1F
100
AcDbEntity
  8
0
 62
     1
100
AcDbLine
 10
3335.518840200559
 20
5704.920115984606
 30
0.0
 11
3253.57017436505
 21
5704.920115984598
 31
0.0
  0
LINE
  5
80E
330
1F
100
AcDbEntity
  8
0
 62
     1
100
AcDbLine
 10
3266.220464513088
 20
5733.638357872551
 30
0.0
 11
3280.620464513111
 21
5733.638357872551
 31
0.0
  0
LINE
  5
80F
330
1F
100
AcDbEntity
  8
0
 62
     1
100
AcDbLine
 10
3254.428417931201
 20
5741.773517178655
 30
0.0
 11
3334.6605966344
 21
5741.773517178655
 31
0.0
  0
LINE
  5
810
330
1F
100
AcDbEntity
  8
0
 62
     1
100
AcDbLine
 10
3338.744129249695
 20
5741.773517178655
 30
0.0
 11
3334.6605966344
 21
5741.773517178655
 31
0.0
  0
ARC
  5
811
330
1F
100
AcDbEntity
  8
0
 62
     1
100
AcDbCircle
 10
3335.521621550274
 20
5712.920115984605
 30
0.0
 40
5.6
100
AcDbArc
 50
270.0
 51
357.2431907803133
  0
ARC
  5
812
330
1F
100
AcDbEntity
  8
0
 62
     1
100
AcDbCircle
 10
3335.518840758108
 20
5712.920115984605
 30
0.0
 40
8.0
100
AcDbArc
 50
269.9999960068469
 51
357.2431907803133
  0
LINE
  5
813
330
1F
100
AcDbEntity
  8
0
 62
     1
100
AcDbLine
 10
3341.115140544557
 20
5712.650773710709
 30
0.0
 11
3341.046449377515
 21
5735.904174904768
 31
0.0
  0
ARC
  5
814
330
1F
100
AcDbEntity
  8
0
 62
     1
100
AcDbCircle
 10
3334.77681732704
 20
5735.491385886438
 30
0.0
 40
6.283206253350315
100
AcDbArc
 50
3.766884968350676
 51
91.0598625425619
  0
ARC
  5
815
330
1F
100
AcDbEntity
  8
0
 62
     1
100
AcDbCircle
 10
3338.851587744321
 20
5737.031453576237
 30
0.0
 40
4.743280988673778
100
AcDbArc
 50
9.000623463105815
 51
91.29814046816758
  0
LINE
  5
816
330
1F
100
AcDbEntity
  8
0
 62
     1
100
AcDbLine
 10
3343.509582178544
 20
5712.535341307608
 30
0.0
 11
3343.544252438846
 21
5745.086957228268
 31
0.0
  0
ARC
  5
817
330
1F
100
AcDbEntity
  8
0
 62
     1
100
AcDbCircle
 10
3338.851587744321
 20
5745.778052382178
 30
0.0
 40
4.743280988673778
100
AcDbArc
 50
351.6221940703855
 51
91.29814046816758
  0
CIRCLE
  5
818
330
1F
100
AcDbEntity
  8
0
 62
     1
100
AcDbCircle
 10
3273.152551567072
 20
5745.7201159846
 30
0.0
 40
1.82
  0
LINE
  5
819
330
1F
100
AcDbEntity
  8
0
 62
     1
100
AcDbLine
 10
3273.4204645131
 20
5726.438357872546
 30
0.0
 11
3273.4204645131
 21
5740.838357872555
 31
0.0
  0
CIRCLE
  5
81A
330
1F
100
AcDbEntity
  8
0
 62
     1
100
AcDbCircle
 10
3273.4204645131
 20
5733.638357872551
 30
0.0
 40
2.408408220001376
  0
CIRCLE
  5
81B
330
1F
100
AcDbEntity
  8
0
 62
     1
100
AcDbCircle
 10
3273.4204645131
 20
5733.638357872551
 30
0.0
 40
3.599999999999999
  0
CIRCLE
  5
81C
330
1F
100
AcDbEntity
  8
0
 62
     1
100
AcDbCircle
 10
3298.378336714184
 20
5733.638357872551
 30
0.0
 40
3.599999999999999
  0
CIRCLE
  5
81D
330
1F
100
AcDbEntity
  8
0
 62
     1
100
AcDbCircle
 10
3298.378336714184
 20
5733.638357872551
 30
0.0
 40
2.408408220001376
  0
LINE
  5
81E
330
1F
100
AcDbEntity
  8
0
 62
     1
100
AcDbLine
 10
3291.178336714172
 20
5733.638357872551
 30
0.0
 11
3305.578336714196
 21
5733.638357872551
 31
0.0
  0
LINE
  5
81F
330
1F
100
AcDbEntity
  8
0
 62
     1
100
AcDbLine
 10
3298.378336714184
 20
5726.438357872546
 30
0.0
 11
3298.378336714184
 21
5740.838357872555
 31
0.0
  0
CIRCLE
  5
820
330
1F
100
AcDbEntity
  8
0
 62
     1
100
AcDbCircle
 10
3298.110423768158
 20
5745.7201159846
 30
0.0
 40
1.82
  0
CIRCLE
  5
821
330
1F
100
AcDbEntity
  8
0
 62
     1
100
AcDbCircle
 10
3323.068295969243
 20
5745.7201159846
 30
0.0
 40
1.82
  0
LINE
  5
822
330
1F
100
AcDbEntity
  8
0
 62
     1
100
AcDbLine
 10
3323.336208915269
 20
5726.438357872546
 30
0.0
 11
3323.336208915269
 21
5740.838357872555
 31
0.0
  0
LINE
  5
823
330
1F
100
AcDbEntity
  8
0
 62
     1
100
AcDbLine
 10
3316.136208915258
 20
5733.638357872551
 30
0.0
 11
3330.536208915281
 21
5733.638357872551
 31
0.0
  0
CIRCLE
  5
824
330
1F
100
AcDbEntity
  8
0
 62
     1
100
AcDbCircle
 10
3323.336208915269
 20
5733.638357872551
 30
0.0
 40
2.408408220001376
  0
CIRCLE
  5
825
330
1F
100
AcDbEntity
  8
0
 62
     1
100
AcDbCircle
 10
3323.336208915269
 20
5733.638357872551
 30
0.0
 40
3.599999999999999
  0
LINE
  5
826
330
1F
100
AcDbEntity
  8
0
 62
     1
100
AcDbLine
 10
3338.745155676967
 20
5741.773517178655
 30
0.0
 11
3334.6605966344
 21
5741.773517178655
 31
0.0
  0
ARC
  5
827
330
1F
100
AcDbEntity
  8
0
 62
     1
100
AcDbCircle
 10
3250.237426821281
 20
5745.778052382178
 30
0.0
 40
4.743280988673778
100
AcDbArc
 50
88.70185953183243
 51
188.3778059296144
  0
LINE
  5
828
330
1F
100
AcDbEntity
  8
0
 62
     1
100
AcDbLine
 10
3245.579432387058
 20
5712.535341307608
 30
0.0
 11
3245.544762126756
 21
5745.086957228268
 31
0.0
  0
ARC
  5
829
330
1F
100
AcDbEntity
  8
0
 62
     1
100
AcDbCircle
 10
3250.237426821281
 20
5737.031453576237
 30
0.0
 40
4.743280988673778
100
AcDbArc
 50
88.70185953183243
 51
170.9993765368942
  0
LINE
  5
82A
330
1F
100
AcDbEntity
  8
0
 62
     1
100
AcDbLine
 10
3247.973874021045
 20
5712.650773710709
 30
0.0
 11
3248.042565188087
 21
5735.904174904768
 31
0.0
  0
LINE
  5
82B
330
1F
100
AcDbEntity
  8
0
 62
     1
100
AcDbLine
 10
3250.129968326684
 20
5750.520115984603
 30
0.0
 11
3341.145155676946
 21
5750.520115984603
 31
0.0
  0
ARC
  5
82C
330
1F
100
AcDbEntity
  8
0
 62
     1
100
AcDbCircle
 10
3254.312197238562
 20
5735.491385886438
 30
0.0
 40
6.283206253350315
100
AcDbArc
 50
88.9401374574381
 51
176.2331150316493
  0
ARC
  5
82D
330
1F
100
AcDbEntity
  8
0
 62
     1
100
AcDbCircle
 10
3253.570173807494
 20
5712.920115984605
 30
0.0
 40
8.0
100
AcDbArc
 50
182.7568092196867
 51
270.0000039931532
  0
ARC
  5
82E
330
1F
100
AcDbEntity
  8
0
 62
     1
100
AcDbCircle
 10
3253.567393015328
 20
5712.920115984605
 30
0.0
 40
5.6
100
AcDbArc
 50
182.7568092196867
 51
270.0
  0
LINE
  5
82F
330
1F
100
AcDbEntity
  8
0
 62
     1
100
AcDbLine
 10
3250.344885315906
 20
5741.773517178655
 30
0.0
 11
3254.428417931201
 21
5741.773517178655
 31
0.0
  0
LINE
  5
830
330
1F
100
AcDbEntity
  8
0
 62
     1
100
AcDbLine
 10
3349.302361990878
 20
5741.773517178655
 30
0.0
 11
3353.385894606173
 21
5741.773517178655
 31
0.0
  0
ARC
  5
831
330
1F
100
AcDbEntity
  8
0
 62
     1
100
AcDbCircle
 10
3352.5248696903
 20
5712.920115984605
 30
0.0
 40
5.6
100
AcDbArc
 50
182.7568092196867
 51
270.0
  0
ARC
  5
832
330
1F
100
AcDbEntity
  8
0
 62
     1
100
AcDbCircle
 10
3352.527650482465
 20
5712.920115984605
 30
0.0
 40
8.0
100
AcDbArc
 50
182.7568092196867
 51
270.0000039931532
  0
ARC
  5
833
330
1F
100
AcDbEntity
  8
0
 62
     1
100
AcDbCircle
 10
3353.269673913534
 20
5735.491385886438
 30
0.0
 40
6.283206253350315
100
AcDbArc
 50
88.9401374574381
 51
176.2331150316493
  0
LINE
  5
834
330
1F
100
AcDbEntity
  8
0
 62
     1
100
AcDbLine
 10
3349.087445001656
 20
5750.520115984603
 30
0.0
 11
3440.102632351918
 21
5750.520115984603
 31
0.0
  0
LINE
  5
835
330
1F
100
AcDbEntity
  8
0
 62
     1
100
AcDbLine
 10
3346.931350696017
 20
5712.650773710709
 30
0.0
 11
3347.000041863059
 21
5735.904174904768
 31
0.0
  0
ARC
  5
836
330
1F
100
AcDbEntity
  8
0
 62
     1
100
AcDbCircle
 10
3349.194903496253
 20
5737.031453576237
 30
0.0
 40
4.743280988673778
100
AcDbArc
 50
88.70185953183243
 51
170.9993765368942
  0
LINE
  5
837
330
1F
100
AcDbEntity
  8
0
 62
     1
100
AcDbLine
 10
3344.53690906203
 20
5712.535341307608
 30
0.0
 11
3344.502238801728
 21
5745.086957228268
 31
0.0
  0
ARC
  5
838
330
1F
100
AcDbEntity
  8
0
 62
     1
100
AcDbCircle
 10
3349.194903496253
 20
5745.778052382178
 30
0.0
 40
4.743280988673778
100
AcDbArc
 50
88.70185953183243
 51
188.3778059296144
  0
LINE
  5
839
330
1F
100
AcDbEntity
  8
0
 62
     1
100
AcDbLine
 10
3437.702632351939
 20
5741.773517178655
 30
0.0
 11
3433.618073309372
 21
5741.773517178655
 31
0.0
  0
CIRCLE
  5
83A
330
1F
100
AcDbEntity
  8
0
 62
     1
100
AcDbCircle
 10
3422.293685590241
 20
5733.638357872551
 30
0.0
 40
3.599999999999999
  0
CIRCLE
  5
83B
330
1F
100
AcDbEntity
  8
0
 62
     1
100
AcDbCircle
 10
3422.293685590241
 20
5733.638357872551
 30
0.0
 40
2.408408220001376
  0
LINE
  5
83C
330
1F
100
AcDbEntity
  8
0
 62
     1
100
AcDbLine
 10
3415.09368559023
 20
5733.638357872551
 30
0.0
 11
3429.493685590253
 21
5733.638357872551
 31
0.0
  0
LINE
  5
83D
330
1F
100
AcDbEntity
  8
0
 62
     1
100
AcDbLine
 10
3422.293685590241
 20
5726.438357872546
 30
0.0
 11
3422.293685590241
 21
5740.838357872555
 31
0.0
  0
CIRCLE
  5
83E
330
1F
100
AcDbEntity
  8
0
 62
     1
100
AcDbCircle
 10
3422.025772644214
 20
5745.7201159846
 30
0.0
 40
1.82
  0
CIRCLE
  5
83F
330
1F
100
AcDbEntity
  8
0
 62
     1
100
AcDbCircle
 10
3397.06790044313
 20
5745.7201159846
 30
0.0
 40
1.82
  0
LINE
  5
840
330
1F
100
AcDbEntity
  8
0
 62
     1
100
AcDbLine
 10
3397.335813389156
 20
5726.438357872546
 30
0.0
 11
3397.335813389156
 21
5740.838357872555
 31
0.0
  0
LINE
  5
841
330
1F
100
AcDbEntity
  8
0
 62
     1
100
AcDbLine
 10
3390.135813389144
 20
5733.638357872551
 30
0.0
 11
3404.535813389168
 21
5733.638357872551
 31
0.0
  0
CIRCLE
  5
842
330
1F
100
AcDbEntity
  8
0
 62
     1
100
AcDbCircle
 10
3397.335813389156
 20
5733.638357872551
 30
0.0
 40
2.408408220001376
  0
CIRCLE
  5
843
330
1F
100
AcDbEntity
  8
0
 62
     1
100
AcDbCircle
 10
3397.335813389156
 20
5733.638357872551
 30
0.0
 40
3.599999999999999
  0
CIRCLE
  5
844
330
1F
100
AcDbEntity
  8
0
 62
     1
100
AcDbCircle
 10
3372.377941188072
 20
5733.638357872551
 30
0.0
 40
3.599999999999999
  0
CIRCLE
  5
845
330
1F
100
AcDbEntity
  8
0
 62
     1
100
AcDbCircle
 10
3372.377941188072
 20
5733.638357872551
 30
0.0
 40
2.408408220001376
  0
LINE
  5
846
330
1F
100
AcDbEntity
  8
0
 62
     1
100
AcDbLine
 10
3372.377941188072
 20
5726.438357872546
 30
0.0
 11
3372.377941188072
 21
5740.838357872555
 31
0.0
  0
CIRCLE
  5
847
330
1F
100
AcDbEntity
  8
0
 62
     1
100
AcDbCircle
 10
3372.110028242045
 20
5745.7201159846
 30
0.0
 40
1.82
  0
ARC
  5
848
330
1F
100
AcDbEntity
  8
0
 62
     1
100
AcDbCircle
 10
3437.809064419293
 20
5745.778052382178
 30
0.0
 40
4.743280988673778
100
AcDbArc
 50
351.6221940703855
 51
91.29814046816758
  0
LINE
  5
849
330
1F
100
AcDbEntity
  8
0
 62
     1
100
AcDbLine
 10
3442.467058853516
 20
5712.535341307608
 30
0.0
 11
3442.501729113818
 21
5745.086957228268
 31
0.0
  0
ARC
  5
84A
330
1F
100
AcDbEntity
  8
0
 62
     1
100
AcDbCircle
 10
3437.809064419293
 20
5737.031453576237
 30
0.0
 40
4.743280988673778
100
AcDbArc
 50
9.000623463105815
 51
91.29814046816758
  0
ARC
  5
84B
330
1F
100
AcDbEntity
  8
0
 62
     1
100
AcDbCircle
 10
3433.734294002011
 20
5735.491385886438
 30
0.0
 40
6.283206253350315
100
AcDbArc
 50
3.766884968350676
 51
91.0598625425619
  0
LINE
  5
84C
330
1F
100
AcDbEntity
  8
0
 62
     1
100
AcDbLine
 10
3440.072617219529
 20
5712.650773710709
 30
0.0
 11
3440.003926052487
 21
5735.904174904768
 31
0.0
  0
ARC
  5
84D
330
1F
100
AcDbEntity
  8
0
 62
     1
100
AcDbCircle
 10
3434.47631743308
 20
5712.920115984605
 30
0.0
 40
8.0
100
AcDbArc
 50
269.9999960068469
 51
357.2431907803133
  0
ARC
  5
84E
330
1F
100
AcDbEntity
  8
0
 62
     1
100
AcDbCircle
 10
3434.479098225246
 20
5712.920115984605
 30
0.0
 40
5.6
100
AcDbArc
 50
270.0
 51
357.2431907803133
  0
LINE
  5
84F
330
1F
100
AcDbEntity
  8
0
 62
     1
100
AcDbLine
 10
3437.701605924667
 20
5741.773517178655
 30
0.0
 11
3433.618073309372
 21
5741.773517178655
 31
0.0
  0
LINE
  5
850
330
1F
100
AcDbEntity
  8
0
 62
     1
100
AcDbLine
 10
3353.385894606173
 20
5741.773517178655
 30
0.0
 11
3433.618073309372
 21
5741.773517178655
 31
0.0
  0
LINE
  5
851
330
1F
100
AcDbEntity
  8
0
 62
     1
100
AcDbLine
 10
3365.17794118806
 20
5733.638357872551
 30
0.0
 11
3379.577941188083
 21
5733.638357872551
 31
0.0
  0
LINE
  5
852
330
1F
100
AcDbEntity
  8
0
 62
     1
100
AcDbLine
 10
3434.476316875531
 20
5704.920115984606
 30
0.0
 11
3352.527651040022
 21
5704.920115984598
 31
0.0
  0
LINE
  5
853
330
1F
100
AcDbEntity
  8
0
 62
     1
100
AcDbLine
 10
3434.479098225246
 20
5707.320115984606
 30
0.0
 11
3352.5248696903
 21
5707.320115984606
 31
0.0
  0
LINE
  5
854
330
1F
100
AcDbEntity
  8
0
 62
     1
100
AcDbLine
 10
1977.217654866588
 20
5707.354757487977
 30
0.0
 11
1895.263426331643
 21
5707.354757487977
 31
0.0
  0
LINE
  5
855
330
1F
100
AcDbEntity
  8
0
 62
     1
100
AcDbLine
 10
1977.214873516874
 20
5704.954757487976
 30
0.0
 11
1895.266207681365
 21
5704.954757487969
 31
0.0
  0
LINE
  5
856
330
1F
100
AcDbEntity
  8
0
 62
     1
100
AcDbLine
 10
1907.916497829402
 20
5733.672999375922
 30
0.0
 11
1922.316497829426
 21
5733.672999375922
 31
0.0
  0
LINE
  5
857
330
1F
100
AcDbEntity
  8
0
 62
     1
100
AcDbLine
 10
1896.124451247516
 20
5741.808158682026
 30
0.0
 11
1976.356629950714
 21
5741.808158682026
 31
0.0
  0
LINE
  5
858
330
1F
100
AcDbEntity
  8
0
 62
     1
100
AcDbLine
 10
1980.44016256601
 20
5741.808158682026
 30
0.0
 11
1976.356629950714
 21
5741.808158682026
 31
0.0
  0
ARC
  5
859
330
1F
100
AcDbEntity
  8
0
 62
     1
100
AcDbCircle
 10
1977.217654866588
 20
5712.954757487977
 30
0.0
 40
5.6
100
AcDbArc
 50
270.0
 51
357.2431907803133
  0
ARC
  5
85A
330
1F
100
AcDbEntity
  8
0
 62
     1
100
AcDbCircle
 10
1977.214874074423
 20
5712.954757487977
 30
0.0
 40
8.0
100
AcDbArc
 50
269.9999960068469
 51
357.2431907803133
  0
LINE
  5
85B
330
1F
100
AcDbEntity
  8
0
 62
     1
100
AcDbLine
 10
1982.811173860871
 20
5712.685415214081
 30
0.0
 11
1982.742482693829
 21
5735.93881640814
 31
0.0
  0
ARC
  5
85C
330
1F
100
AcDbEntity
  8
0
 62
     1
100
AcDbCircle
 10
1976.472850643354
 20
5735.526027389809
 30
0.0
 40
6.283206253350315
100
AcDbArc
 50
3.766884968350676
 51
91.0598625425619
  0
ARC
  5
85D
330
1F
100
AcDbEntity
  8
0
 62
     1
100
AcDbCircle
 10
1980.547621060635
 20
5737.066095079608
 30
0.0
 40
4.743280988673778
100
AcDbArc
 50
9.000623463105815
 51
91.29814046816758
  0
LINE
  5
85E
330
1F
100
AcDbEntity
  8
0
 62
     1
100
AcDbLine
 10
1985.205615494858
 20
5712.569982810979
 30
0.0
 11
1985.24028575516
 21
5745.121598731639
 31
0.0
  0
ARC
  5
85F
330
1F
100
AcDbEntity
  8
0
 62
     1
100
AcDbCircle
 10
1980.547621060635
 20
5745.812693885549
 30
0.0
 40
4.743280988673778
100
AcDbArc
 50
351.6221940703855
 51
91.29814046816758
  0
CIRCLE
  5
860
330
1F
100
AcDbEntity
  8
0
 62
     1
100
AcDbCircle
 10
1914.848584883388
 20
5745.754757487972
 30
0.0
 40
1.82
  0
LINE
  5
861
330
1F
100
AcDbEntity
  8
0
 62
     1
100
AcDbLine
 10
1915.116497829414
 20
5726.472999375918
 30
0.0
 11
1915.116497829414
 21
5740.872999375927
 31
0.0
  0
CIRCLE
  5
862
330
1F
100
AcDbEntity
  8
0
 62
     1
100
AcDbCircle
 10
1915.116497829414
 20
5733.672999375922
 30
0.0
 40
2.408408220001376
  0
CIRCLE
  5
863
330
1F
100
AcDbEntity
  8
0
 62
     1
100
AcDbCircle
 10
1915.116497829414
 20
5733.672999375922
 30
0.0
 40
3.599999999999999
  0
CIRCLE
  5
864
330
1F
100
AcDbEntity
  8
0
 62
     1
100
AcDbCircle
 10
1940.074370030499
 20
5733.672999375922
 30
0.0
 40
3.599999999999999
  0
CIRCLE
  5
865
330
1F
100
AcDbEntity
  8
0
 62
     1
100
AcDbCircle
 10
1940.074370030499
 20
5733.672999375922
 30
0.0
 40
2.408408220001376
  0
LINE
  5
866
330
1F
100
AcDbEntity
  8
0
 62
     1
100
AcDbLine
 10
1932.874370030487
 20
5733.672999375922
 30
0.0
 11
1947.27437003051
 21
5733.672999375922
 31
0.0
  0
LINE
  5
867
330
1F
100
AcDbEntity
  8
0
 62
     1
100
AcDbLine
 10
1940.074370030499
 20
5726.472999375918
 30
0.0
 11
1940.074370030499
 21
5740.872999375927
 31
0.0
  0
CIRCLE
  5
868
330
1F
100
AcDbEntity
  8
0
 62
     1
100
AcDbCircle
 10
1939.806457084472
 20
5745.754757487972
 30
0.0
 40
1.82
  0
CIRCLE
  5
869
330
1F
100
AcDbEntity
  8
0
 62
     1
100
AcDbCircle
 10
1964.764329285557
 20
5745.754757487972
 30
0.0
 40
1.82
  0
LINE
  5
86A
330
1F
100
AcDbEntity
  8
0
 62
     1
100
AcDbLine
 10
1965.032242231584
 20
5726.472999375918
 30
0.0
 11
1965.032242231584
 21
5740.872999375927
 31
0.0
  0
LINE
  5
86B
330
1F
100
AcDbEntity
  8
0
 62
     1
100
AcDbLine
 10
1957.832242231572
 20
5733.672999375922
 30
0.0
 11
1972.232242231595
 21
5733.672999375922
 31
0.0
  0
CIRCLE
  5
86C
330
1F
100
AcDbEntity
  8
0
 62
     1
100
AcDbCircle
 10
1965.032242231584
 20
5733.672999375922
 30
0.0
 40
2.408408220001376
  0
CIRCLE
  5
86D
330
1F
100
AcDbEntity
  8
0
 62
     1
100
AcDbCircle
 10
1965.032242231584
 20
5733.672999375922
 30
0.0
 40
3.599999999999999
  0
LINE
  5
86E
330
1F
100
AcDbEntity
  8
0
 62
     1
100
AcDbLine
 10
1980.441188993281
 20
5741.808158682026
 30
0.0
 11
1976.356629950714
 21
5741.808158682026
 31
0.0
  0
ARC
  5
86F
330
1F
100
AcDbEntity
  8
0
 62
     1
100
AcDbCircle
 10
1891.933460137596
 20
5745.812693885549
 30
0.0
 40
4.743280988673778
100
AcDbArc
 50
88.70185953183243
 51
188.3778059296144
  0
LINE
  5
870
330
1F
100
AcDbEntity
  8
0
 62
     1
100
AcDbLine
 10
1887.275465703373
 20
5712.569982810979
 30
0.0
 11
1887.240795443071
 21
5745.121598731639
 31
0.0
  0
ARC
  5
871
330
1F
100
AcDbEntity
  8
0
 62
     1
100
AcDbCircle
 10
1891.933460137596
 20
5737.066095079608
 30
0.0
 40
4.743280988673778
100
AcDbArc
 50
88.70185953183243
 51
170.9993765368942
  0
LINE
  5
872
330
1F
100
AcDbEntity
  8
0
 62
     1
100
AcDbLine
 10
1889.66990733736
 20
5712.685415214081
 30
0.0
 11
1889.738598504402
 21
5735.93881640814
 31
0.0
  0
LINE
  5
873
330
1F
100
AcDbEntity
  8
0
 62
     1
100
AcDbLine
 10
1891.826001642999
 20
5750.554757487975
 30
0.0
 11
1982.841188993261
 21
5750.554757487975
 31
0.0
  0
ARC
  5
874
330
1F
100
AcDbEntity
  8
0
 62
     1
100
AcDbCircle
 10
1896.008230554876
 20
5735.526027389809
 30
0.0
 40
6.283206253350315
100
AcDbArc
 50
88.9401374574381
 51
176.2331150316493
  0
ARC
  5
875
330
1F
100
AcDbEntity
  8
0
 62
     1
100
AcDbCircle
 10
1895.266207123808
 20
5712.954757487977
 30
0.0
 40
8.0
100
AcDbArc
 50
182.7568092196867
 51
270.0000039931532
  0
ARC
  5
876
330
1F
100
AcDbEntity
  8
0
 62
     1
100
AcDbCircle
 10
1895.263426331643
 20
5712.954757487977
 30
0.0
 40
5.6
100
AcDbArc
 50
182.7568092196867
 51
270.0
  0
LINE
  5
877
330
1F
100
AcDbEntity
  8
0
 62
     1
100
AcDbLine
 10
1892.040918632221
 20
5741.808158682026
 30
0.0
 11
1896.124451247516
 21
5741.808158682026
 31
0.0
  0
LINE
  5
878
330
1F
100
AcDbEntity
  8
0
 62
     1
100
AcDbLine
 10
1990.998395307193
 20
5741.808158682026
 30
0.0
 11
1995.081927922489
 21
5741.808158682026
 31
0.0
  0
ARC
  5
879
330
1F
100
AcDbEntity
  8
0
 62
     1
100
AcDbCircle
 10
1994.220903006615
 20
5712.954757487977
 30
0.0
 40
5.6
100
AcDbArc
 50
182.7568092196867
 51
270.0
  0
ARC
  5
87A
330
1F
100
AcDbEntity
  8
0
 62
     1
100
AcDbCircle
 10
1994.22368379878
 20
5712.954757487977
 30
0.0
 40
8.0
100
AcDbArc
 50
182.7568092196867
 51
270.0000039931532
  0
ARC
  5
87B
330
1F
100
AcDbEntity
  8
0
 62
     1
100
AcDbCircle
 10
1994.965707229848
 20
5735.526027389809
 30
0.0
 40
6.283206253350315
100
AcDbArc
 50
88.9401374574381
 51
176.2331150316493
  0
LINE
  5
87C
330
1F
100
AcDbEntity
  8
0
 62
     1
100
AcDbLine
 10
1990.783478317971
 20
5750.554757487975
 30
0.0
 11
2081.798665668233
 21
5750.554757487975
 31
0.0
  0
LINE
  5
87D
330
1F
100
AcDbEntity
  8
0
 62
     1
100
AcDbLine
 10
1988.627384012332
 20
5712.685415214081
 30
0.0
 11
1988.696075179374
 21
5735.93881640814
 31
0.0
  0
ARC
  5
87E
330
1F
100
AcDbEntity
  8
0
 62
     1
100
AcDbCircle
 10
1990.890936812568
 20
5737.066095079608
 30
0.0
 40
4.743280988673778
100
AcDbArc
 50
88.70185953183243
 51
170.9993765368942
  0
LINE
  5
87F
330
1F
100
AcDbEntity
  8
0
 62
     1
100
AcDbLine
 10
1986.232942378345
 20
5712.569982810979
 30
0.0
 11
1986.198272118043
 21
5745.121598731639
 31
0.0
  0
ARC
  5
880
330
1F
100
AcDbEntity
  8
0
 62
     1
100
AcDbCircle
 10
1990.890936812568
 20
5745.812693885549
 30
0.0
 40
4.743280988673778
100
AcDbArc
 50
88.70185953183243
 51
188.3778059296144
  0
LINE
  5
881
330
1F
100
AcDbEntity
  8
0
 62
     1
100
AcDbLine
 10
2079.398665668254
 20
5741.808158682026
 30
0.0
 11
2075.314106625687
 21
5741.808158682026
 31
0.0
  0
CIRCLE
  5
882
330
1F
100
AcDbEntity
  8
0
 62
     1
100
AcDbCircle
 10
2063.989718906556
 20
5733.672999375922
 30
0.0
 40
3.599999999999999
  0
CIRCLE
  5
883
330
1F
100
AcDbEntity
  8
0
 62
     1
100
AcDbCircle
 10
2063.989718906556
 20
5733.672999375922
 30
0.0
 40
2.408408220001376
  0
LINE
  5
884
330
1F
100
AcDbEntity
  8
0
 62
     1
100
AcDbLine
 10
2056.789718906545
 20
5733.672999375922
 30
0.0
 11
2071.189718906568
 21
5733.672999375922
 31
0.0
  0
LINE
  5
885
330
1F
100
AcDbEntity
  8
0
 62
     1
100
AcDbLine
 10
2063.989718906556
 20
5726.472999375918
 30
0.0
 11
2063.989718906556
 21
5740.872999375927
 31
0.0
  0
CIRCLE
  5
886
330
1F
100
AcDbEntity
  8
0
 62
     1
100
AcDbCircle
 10
2063.721805960529
 20
5745.754757487972
 30
0.0
 40
1.82
  0
CIRCLE
  5
887
330
1F
100
AcDbEntity
  8
0
 62
     1
100
AcDbCircle
 10
2038.763933759444
 20
5745.754757487972
 30
0.0
 40
1.82
  0
LINE
  5
888
330
1F
100
AcDbEntity
  8
0
 62
     1
100
AcDbLine
 10
2039.031846705471
 20
5726.472999375918
 30
0.0
 11
2039.031846705471
 21
5740.872999375927
 31
0.0
  0
LINE
  5
889
330
1F
100
AcDbEntity
  8
0
 62
     1
100
AcDbLine
 10
2031.831846705459
 20
5733.672999375922
 30
0.0
 11
2046.231846705483
 21
5733.672999375922
 31
0.0
  0
CIRCLE
  5
88A
330
1F
100
AcDbEntity
  8
0
 62
     1
100
AcDbCircle
 10
2039.031846705471
 20
5733.672999375922
 30
0.0
 40
2.408408220001376
  0
CIRCLE
  5
88B
330
1F
100
AcDbEntity
  8
0
 62
     1
100
AcDbCircle
 10
2039.031846705471
 20
5733.672999375922
 30
0.0
 40
3.599999999999999
  0
CIRCLE
  5
88C
330
1F
100
AcDbEntity
  8
0
 62
     1
100
AcDbCircle
 10
2014.073974504386
 20
5733.672999375922
 30
0.0
 40
3.599999999999999
  0
CIRCLE
  5
88D
330
1F
100
AcDbEntity
  8
0
 62
     1
100
AcDbCircle
 10
2014.073974504386
 20
5733.672999375922
 30
0.0
 40
2.408408220001376
  0
LINE
  5
88E
330
1F
100
AcDbEntity
  8
0
 62
     1
100
AcDbLine
 10
2014.073974504386
 20
5726.472999375918
 30
0.0
 11
2014.073974504386
 21
5740.872999375927
 31
0.0
  0
CIRCLE
  5
88F
330
1F
100
AcDbEntity
  8
0
 62
     1
100
AcDbCircle
 10
2013.80606155836
 20
5745.754757487972
 30
0.0
 40
1.82
  0
ARC
  5
890
330
1F
100
AcDbEntity
  8
0
 62
     1
100
AcDbCircle
 10
2079.505097735608
 20
5745.812693885549
 30
0.0
 40
4.743280988673778
100
AcDbArc
 50
351.6221940703855
 51
91.29814046816758
  0
LINE
  5
891
330
1F
100
AcDbEntity
  8
0
 62
     1
100
AcDbLine
 10
2084.163092169831
 20
5712.569982810979
 30
0.0
 11
2084.197762430132
 21
5745.121598731639
 31
0.0
  0
ARC
  5
892
330
1F
100
AcDbEntity
  8
0
 62
     1
100
AcDbCircle
 10
2079.505097735608
 20
5737.066095079608
 30
0.0
 40
4.743280988673778
100
AcDbArc
 50
9.000623463105815
 51
91.29814046816758
  0
ARC
  5
893
330
1F
100
AcDbEntity
  8
0
 62
     1
100
AcDbCircle
 10
2075.430327318327
 20
5735.526027389809
 30
0.0
 40
6.283206253350315
100
AcDbArc
 50
3.766884968350676
 51
91.0598625425619
  0
LINE
  5
894
330
1F
100
AcDbEntity
  8
0
 62
     1
100
AcDbLine
 10
2081.768650535844
 20
5712.685415214081
 30
0.0
 11
2081.699959368802
 21
5735.93881640814
 31
0.0
  0
ARC
  5
895
330
1F
100
AcDbEntity
  8
0
 62
     1
100
AcDbCircle
 10
2076.172350749395
 20
5712.954757487977
 30
0.0
 40
8.0
100
AcDbArc
 50
269.9999960068469
 51
357.2431907803133
  0
ARC
  5
896
330
1F
100
AcDbEntity
  8
0
 62
     1
100
AcDbCircle
 10
2076.17513154156
 20
5712.954757487977
 30
0.0
 40
5.6
100
AcDbArc
 50
270.0
 51
357.2431907803133
  0
LINE
  5
897
330
1F
100
AcDbEntity
  8
0
 62
     1
100
AcDbLine
 10
2079.397639240982
 20
5741.808158682026
 30
0.0
 11
2075.314106625687
 21
5741.808158682026
 31
0.0
  0
LINE
  5
898
330
1F
100
AcDbEntity
  8
0
 62
     1
100
AcDbLine
 10
1995.081927922489
 20
5741.808158682026
 30
0.0
 11
2075.314106625687
 21
5741.808158682026
 31
0.0
  0
LINE
  5
899
330
1F
100
AcDbEntity
  8
0
 62
     1
100
AcDbLine
 10
2006.873974504375
 20
5733.672999375922
 30
0.0
 11
2021.273974504398
 21
5733.672999375922
 31
0.0
  0
LINE
  5
89A
330
1F
100
AcDbEntity
  8
0
 62
     1
100
AcDbLine
 10
2076.172350191846
 20
5704.954757487976
 30
0.0
 11
1994.223684356336
 21
5704.954757487969
 31
0.0
  0
LINE
  5
89B
330
1F
100
AcDbEntity
  8
0
 62
     1
100
AcDbLine
 10
2076.17513154156
 20
5707.354757487977
 30
0.0
 11
1994.220903006615
 21
5707.354757487977
 31
0.0
  0
INSERT
  5
89C
330
1F
100
AcDbEntity
  8
SCRITTE-VARIE
100
AcDbBlockReference
  2
A$C100B143C
 10
4460.681673848366
 20
6284.664345320531
 30
0.0
 41
1.599999999998772
 42
1.600000000000363
 43
1280.824229898207
 50
42.07028415393521
  0
LWPOLYLINE
  5
89D
330
1F
100
AcDbEntity
  8
0
 62
     1
100
AcDbPolyline
 90
        8
 70
     1
 43
0.0
 10
3249.857353707819
 20
6056.586954710609
 10
3193.607353707819
 20
6056.586954710609
 42
0.4142135623730951
 10
3187.357353707819
 20
6050.336954710608
 10
3187.357353707819
 20
5975.336954710609
 42
0.4142135623730951
 10
3193.607353707819
 20
5969.086954710609
 10
3249.857353707819
 20
5969.086954710609
 42
0.4142135623730951
 10
3256.10735370782
 20
5975.336954710609
 10
3256.10735370782
 20
6050.336954710608
 42
0.4142135623730951
  0
LWPOLYLINE
  5
89E
330
1F
100
AcDbEntity
  8
0
 62
     1
100
AcDbPolyline
 90
        8
 70
     1
 43
0.0
 10
3249.857353707819
 20
6052.836954710609
 10
3193.607353707819
 20
6052.836954710609
 42
0.4142135623730951
 10
3191.107353707819
 20
6050.336954710608
 10
3191.107353707819
 20
5975.336954710609
 42
0.4142135623730951
 10
3193.607353707819
 20
5972.836954710608
 10
3249.857353707819
 20
5972.836954710608
 42
0.4142135623730951
 10
3252.357353707819
 20
5975.336954710609
 10
3252.357353707819
 20
6050.336954710608
 42
0.4142135623730951
  0
ARC
  5
89F
330
1F
100
AcDbEntity
  8
0
 62
     1
100
AcDbCircle
 10
3211.732353707819
 20
5982.836954710609
 30
0.0
 40
3.75
100
AcDbArc
 50
270.0
 51
0.0
  0
LINE
  5
8A0
330
1F
100
AcDbEntity
  8
0
 62
     1
100
AcDbLine
 10
3200.482353707819
 20
5979.086954710608
 30
0.0
 11
3211.732353707819
 21
5979.086954710608
 31
0.0
  0
LINE
  5
8A1
330
1F
100
AcDbEntity
  8
0
 62
     1
100
AcDbLine
 10
3215.48235370782
 20
6012.836954710609
 30
0.0
 11
3215.48235370782
 21
5982.836954710609
 31
0.0
  0
ARC
  5
8A2
330
1F
100
AcDbEntity
  8
0
 62
     1
100
AcDbCircle
 10
3211.732353707819
 20
6012.836954710609
 30
0.0
 40
3.75
100
AcDbArc
 50
0.0
 51
90.0
  0
LINE
  5
8A3
330
1F
100
AcDbEntity
  8
0
 62
     1
100
AcDbLine
 10
3200.482353707819
 20
6016.586954710608
 30
0.0
 11
3211.732353707819
 21
6016.586954710608
 31
0.0
  0
ARC
  5
8A4
330
1F
100
AcDbEntity
  8
0
 62
     1
100
AcDbCircle
 10
3200.482353707819
 20
6012.836954710609
 30
0.0
 40
3.75
100
AcDbArc
 50
90.0
 51
180.0
  0
LINE
  5
8A5
330
1F
100
AcDbEntity
  8
0
 62
     1
100
AcDbLine
 10
3196.732353707819
 20
6012.836954710609
 30
0.0
 11
3196.732353707819
 21
5982.836954710609
 31
0.0
  0
ARC
  5
8A6
330
1F
100
AcDbEntity
  8
0
 62
     1
100
AcDbCircle
 10
3200.482353707819
 20
5982.836954710609
 30
0.0
 40
3.75
100
AcDbArc
 50
180.0
 51
270.0
  0
LINE
  5
8A7
330
1F
100
AcDbEntity
  8
0
 62
     1
100
AcDbLine
 10
3211.732353707823
 20
6010.336954710608
 30
0.0
 11
3200.482353707823
 21
6010.336954710608
 31
0.0
  0
LINE
  5
8A8
330
1F
100
AcDbEntity
  8
0
 62
     1
100
AcDbLine
 10
3211.732353707823
 20
6004.086954710608
 30
0.0
 11
3200.482353707823
 21
6004.086954710608
 31
0.0
  0
LINE
  5
8A9
330
1F
100
AcDbEntity
  8
0
 62
     1
100
AcDbLine
 10
3211.732353707819
 20
5997.836954710608
 30
0.0
 11
3200.482353707819
 21
5997.836954710608
 31
0.0
  0
LINE
  5
8AA
330
1F
100
AcDbEntity
  8
0
 62
     1
100
AcDbLine
 10
3211.732353707819
 20
5991.586954710609
 30
0.0
 11
3200.482353707819
 21
5991.586954710609
 31
0.0
  0
LINE
  5
8AB
330
1F
100
AcDbEntity
  8
0
 62
     1
100
AcDbLine
 10
3211.732353707819
 20
5985.336954710608
 30
0.0
 11
3200.482353707819
 21
5985.336954710608
 31
0.0
  0
ARC
  5
8AC
330
1F
100
AcDbEntity
  8
0
 62
     1
100
AcDbCircle
 10
3242.982353707819
 20
5982.836954710609
 30
0.0
 40
3.75
100
AcDbArc
 50
270.0
 51
0.0
  0
LINE
  5
8AD
330
1F
100
AcDbEntity
  8
0
 62
     1
100
AcDbLine
 10
3246.73235370782
 20
6012.836954710609
 30
0.0
 11
3246.73235370782
 21
5982.836954710609
 31
0.0
  0
ARC
  5
8AE
330
1F
100
AcDbEntity
  8
0
 62
     1
100
AcDbCircle
 10
3242.982353707819
 20
6012.836954710609
 30
0.0
 40
3.75
100
AcDbArc
 50
0.0
 51
90.0
  0
LINE
  5
8AF
330
1F
100
AcDbEntity
  8
0
 62
     1
100
AcDbLine
 10
3242.982353707819
 20
6016.586954710608
 30
0.0
 11
3231.732353707819
 21
6016.586954710608
 31
0.0
  0
ARC
  5
8B0
330
1F
100
AcDbEntity
  8
0
 62
     1
100
AcDbCircle
 10
3231.732353707819
 20
6012.836954710609
 30
0.0
 40
3.75
100
AcDbArc
 50
90.0
 51
180.0
  0
LINE
  5
8B1
330
1F
100
AcDbEntity
  8
0
 62
     1
100
AcDbLine
 10
3227.982353707819
 20
6012.836954710609
 30
0.0
 11
3227.982353707819
 21
5982.836954710609
 31
0.0
  0
LINE
  5
8B2
330
1F
100
AcDbEntity
  8
0
 62
     1
100
AcDbLine
 10
3242.982353707819
 20
5979.086954710608
 30
0.0
 11
3231.732353707819
 21
5979.086954710608
 31
0.0
  0
ARC
  5
8B3
330
1F
100
AcDbEntity
  8
0
 62
     1
100
AcDbCircle
 10
3231.732353707819
 20
5982.836954710609
 30
0.0
 40
3.75
100
AcDbArc
 50
180.0
 51
270.0
  0
LINE
  5
8B4
330
1F
100
AcDbEntity
  8
0
 62
     1
100
AcDbLine
 10
3242.982353707819
 20
5985.336954710608
 30
0.0
 11
3231.732353707819
 21
5985.336954710608
 31
0.0
  0
LINE
  5
8B5
330
1F
100
AcDbEntity
  8
0
 62
     1
100
AcDbLine
 10
3242.982353707819
 20
5991.586954710609
 30
0.0
 11
3231.732353707819
 21
5991.586954710609
 31
0.0
  0
LINE
  5
8B6
330
1F
100
AcDbEntity
  8
0
 62
     1
100
AcDbLine
 10
3242.982353707819
 20
5997.836954710608
 30
0.0
 11
3231.732353707819
 21
5997.836954710608
 31
0.0
  0
LINE
  5
8B7
330
1F
100
AcDbEntity
  8
0
 62
     1
100
AcDbLine
 10
3242.982353707823
 20
6004.086954710608
 30
0.0
 11
3231.732353707823
 21
6004.086954710608
 31
0.0
  0
LINE
  5
8B8
330
1F
100
AcDbEntity
  8
0
 62
     1
100
AcDbLine
 10
3242.982353707823
 20
6010.336954710608
 30
0.0
 11
3231.732353707823
 21
6010.336954710608
 31
0.0
  0
CIRCLE
  5
8B9
330
1F
100
AcDbEntity
  8
0
 62
     1
100
AcDbCircle
 10
3221.73235370782
 20
6038.542674146651
 30
0.0
 40
10.0
  0
LWPOLYLINE
  5
8BA
330
1F
100
AcDbEntity
  8
0
 62
     1
100
AcDbPolyline
 90
        8
 70
     1
 43
0.0
 10
3361.709925222239
 20
6052.836954710609
 10
3305.45992522224
 20
6052.836954710609
 42
0.4142135623730951
 10
3302.95992522224
 20
6050.336954710608
 10
3302.95992522224
 20
5975.336954710609
 42
0.4142135623730951
 10
3305.45992522224
 20
5972.836954710608
 10
3361.709925222239
 20
5972.836954710608
 42
0.4142135623730951
 10
3364.209925222239
 20
5975.336954710609
 10
3364.209925222239
 20
6050.336954710608
 42
0.4142135623730951
  0
ARC
  5
8BB
330
1F
100
AcDbEntity
  8
0
 62
     1
100
AcDbCircle
 10
3323.58492522224
 20
5982.836954710609
 30
0.0
 40
3.75
100
AcDbArc
 50
270.0
 51
0.0
  0
LINE
  5
8BC
330
1F
100
AcDbEntity
  8
0
 62
     1
100
AcDbLine
 10
3312.33492522224
 20
5979.086954710608
 30
0.0
 11
3323.58492522224
 21
5979.086954710608
 31
0.0
  0
LINE
  5
8BD
330
1F
100
AcDbEntity
  8
0
 62
     1
100
AcDbLine
 10
3327.33492522224
 20
6012.836954710609
 30
0.0
 11
3327.33492522224
 21
5982.836954710609
 31
0.0
  0
ARC
  5
8BE
330
1F
100
AcDbEntity
  8
0
 62
     1
100
AcDbCircle
 10
3323.58492522224
 20
6012.836954710609
 30
0.0
 40
3.75
100
AcDbArc
 50
0.0
 51
90.0
  0
LINE
  5
8BF
330
1F
100
AcDbEntity
  8
0
 62
     1
100
AcDbLine
 10
3312.33492522224
 20
6016.586954710608
 30
0.0
 11
3323.58492522224
 21
6016.586954710608
 31
0.0
  0
ARC
  5
8C0
330
1F
100
AcDbEntity
  8
0
 62
     1
100
AcDbCircle
 10
3312.33492522224
 20
6012.836954710609
 30
0.0
 40
3.75
100
AcDbArc
 50
90.0
 51
180.0
  0
LINE
  5
8C1
330
1F
100
AcDbEntity
  8
0
 62
     1
100
AcDbLine
 10
3308.58492522224
 20
6012.836954710609
 30
0.0
 11
3308.58492522224
 21
5982.836954710609
 31
0.0
  0
ARC
  5
8C2
330
1F
100
AcDbEntity
  8
0
 62
     1
100
AcDbCircle
 10
3312.33492522224
 20
5982.836954710609
 30
0.0
 40
3.75
100
AcDbArc
 50
180.0
 51
270.0
  0
LINE
  5
8C3
330
1F
100
AcDbEntity
  8
0
 62
     1
100
AcDbLine
 10
3323.584925222244
 20
6010.336954710608
 30
0.0
 11
3312.334925222244
 21
6010.336954710608
 31
0.0
  0
LINE
  5
8C4
330
1F
100
AcDbEntity
  8
0
 62
     1
100
AcDbLine
 10
3323.584925222244
 20
6004.086954710608
 30
0.0
 11
3312.334925222244
 21
6004.086954710608
 31
0.0
  0
LINE
  5
8C5
330
1F
100
AcDbEntity
  8
0
 62
     1
100
AcDbLine
 10
3323.58492522224
 20
5997.836954710608
 30
0.0
 11
3312.33492522224
 21
5997.836954710608
 31
0.0
  0
LINE
  5
8C6
330
1F
100
AcDbEntity
  8
0
 62
     1
100
AcDbLine
 10
3323.58492522224
 20
5991.586954710609
 30
0.0
 11
3312.33492522224
 21
5991.586954710609
 31
0.0
  0
LINE
  5
8C7
330
1F
100
AcDbEntity
  8
0
 62
     1
100
AcDbLine
 10
3323.58492522224
 20
5985.336954710608
 30
0.0
 11
3312.33492522224
 21
5985.336954710608
 31
0.0
  0
ARC
  5
8C8
330
1F
100
AcDbEntity
  8
0
 62
     1
100
AcDbCircle
 10
3354.83492522224
 20
5982.836954710609
 30
0.0
 40
3.75
100
AcDbArc
 50
270.0
 51
0.0
  0
LINE
  5
8C9
330
1F
100
AcDbEntity
  8
0
 62
     1
100
AcDbLine
 10
3358.58492522224
 20
6012.836954710609
 30
0.0
 11
3358.58492522224
 21
5982.836954710609
 31
0.0
  0
ARC
  5
8CA
330
1F
100
AcDbEntity
  8
0
 62
     1
100
AcDbCircle
 10
3354.83492522224
 20
6012.836954710609
 30
0.0
 40
3.75
100
AcDbArc
 50
0.0
 51
90.0
  0
LINE
  5
8CB
330
1F
100
AcDbEntity
  8
0
 62
     1
100
AcDbLine
 10
3354.83492522224
 20
6016.586954710608
 30
0.0
 11
3343.58492522224
 21
6016.586954710608
 31
0.0
  0
ARC
  5
8CC
330
1F
100
AcDbEntity
  8
0
 62
     1
100
AcDbCircle
 10
3343.58492522224
 20
6012.836954710609
 30
0.0
 40
3.75
100
AcDbArc
 50
90.0
 51
180.0
  0
LINE
  5
8CD
330
1F
100
AcDbEntity
  8
0
 62
     1
100
AcDbLine
 10
3339.83492522224
 20
6012.836954710609
 30
0.0
 11
3339.83492522224
 21
5982.836954710609
 31
0.0
  0
LINE
  5
8CE
330
1F
100
AcDbEntity
  8
0
 62
     1
100
AcDbLine
 10
3354.83492522224
 20
5979.086954710608
 30
0.0
 11
3343.58492522224
 21
5979.086954710608
 31
0.0
  0
ARC
  5
8CF
330
1F
100
AcDbEntity
  8
0
 62
     1
100
AcDbCircle
 10
3343.58492522224
 20
5982.836954710609
 30
0.0
 40
3.75
100
AcDbArc
 50
180.0
 51
270.0
  0
LINE
  5
8D0
330
1F
100
AcDbEntity
  8
0
 62
     1
100
AcDbLine
 10
3354.83492522224
 20
5985.336954710608
 30
0.0
 11
3343.58492522224
 21
5985.336954710608
 31
0.0
  0
LINE
  5
8D1
330
1F
100
AcDbEntity
  8
0
 62
     1
100
AcDbLine
 10
3354.83492522224
 20
5991.586954710609
 30
0.0
 11
3343.58492522224
 21
5991.586954710609
 31
0.0
  0
LINE
  5
8D2
330
1F
100
AcDbEntity
  8
0
 62
     1
100
AcDbLine
 10
3354.83492522224
 20
5997.836954710608
 30
0.0
 11
3343.58492522224
 21
5997.836954710608
 31
0.0
  0
LINE
  5
8D3
330
1F
100
AcDbEntity
  8
0
 62
     1
100
AcDbLine
 10
3354.834925222244
 20
6004.086954710608
 30
0.0
 11
3343.584925222244
 21
6004.086954710608
 31
0.0
  0
LINE
  5
8D4
330
1F
100
AcDbEntity
  8
0
 62
     1
100
AcDbLine
 10
3354.834925222244
 20
6010.336954710608
 30
0.0
 11
3343.584925222244
 21
6010.336954710608
 31
0.0
  0
CIRCLE
  5
8D5
330
1F
100
AcDbEntity
  8
0
 62
     1
100
AcDbCircle
 10
3333.58492522224
 20
6038.542674146651
 30
0.0
 40
10.0
  0
LWPOLYLINE
  5
8D6
330
1F
100
AcDbEntity
  8
0
 62
     1
100
AcDbPolyline
 90
        8
 70
     1
 43
0.0
 10
3361.709925222239
 20
6056.586954710609
 10
3305.45992522224
 20
6056.586954710609
 42
0.4142135623730951
 10
3299.209925222239
 20
6050.336954710608
 10
3299.209925222239
 20
5975.336954710609
 42
0.4142135623730951
 10
3305.45992522224
 20
5969.086954710609
 10
3361.709925222239
 20
5969.086954710609
 42
0.4142135623730951
 10
3367.95992522224
 20
5975.336954710609
 10
3367.95992522224
 20
6050.336954710608
 42
0.4142135623730951
  0
CIRCLE
  5
8D7
330
1F
100
AcDbEntity
  8
0
 62
     1
100
AcDbCircle
 10
3444.33550957941
 20
6038.542674146651
 30
0.0
 40
10.0
  0
LINE
  5
8D8
330
1F
100
AcDbEntity
  8
0
 62
     1
100
AcDbLine
 10
3465.585509579415
 20
6010.336954710608
 30
0.0
 11
3454.335509579414
 21
6010.336954710608
 31
0.0
  0
LINE
  5
8D9
330
1F
100
AcDbEntity
  8
0
 62
     1
100
AcDbLine
 10
3465.585509579415
 20
6004.086954710608
 30
0.0
 11
3454.335509579414
 21
6004.086954710608
 31
0.0
  0
LINE
  5
8DA
330
1F
100
AcDbEntity
  8
0
 62
     1
100
AcDbLine
 10
3465.585509579411
 20
5997.836954710608
 30
0.0
 11
3454.335509579411
 21
5997.836954710608
 31
0.0
  0
LINE
  5
8DB
330
1F
100
AcDbEntity
  8
0
 62
     1
100
AcDbLine
 10
3465.585509579411
 20
5991.586954710609
 30
0.0
 11
3454.335509579411
 21
5991.586954710609
 31
0.0
  0
LINE
  5
8DC
330
1F
100
AcDbEntity
  8
0
 62
     1
100
AcDbLine
 10
3465.585509579411
 20
5985.336954710608
 30
0.0
 11
3454.335509579411
 21
5985.336954710608
 31
0.0
  0
ARC
  5
8DD
330
1F
100
AcDbEntity
  8
0
 62
     1
100
AcDbCircle
 10
3454.335509579411
 20
5982.836954710609
 30
0.0
 40
3.75
100
AcDbArc
 50
180.0
 51
270.0
  0
LINE
  5
8DE
330
1F
100
AcDbEntity
  8
0
 62
     1
100
AcDbLine
 10
3465.585509579411
 20
5979.086954710608
 30
0.0
 11
3454.335509579411
 21
5979.086954710608
 31
0.0
  0
LINE
  5
8DF
330
1F
100
AcDbEntity
  8
0
 62
     1
100
AcDbLine
 10
3450.58550957941
 20
6012.836954710609
 30
0.0
 11
3450.58550957941
 21
5982.836954710609
 31
0.0
  0
ARC
  5
8E0
330
1F
100
AcDbEntity
  8
0
 62
     1
100
AcDbCircle
 10
3454.335509579411
 20
6012.836954710609
 30
0.0
 40
3.75
100
AcDbArc
 50
90.0
 51
180.0
  0
LINE
  5
8E1
330
1F
100
AcDbEntity
  8
0
 62
     1
100
AcDbLine
 10
3465.585509579411
 20
6016.586954710608
 30
0.0
 11
3454.335509579411
 21
6016.586954710608
 31
0.0
  0
ARC
  5
8E2
330
1F
100
AcDbEntity
  8
0
 62
     1
100
AcDbCircle
 10
3465.585509579411
 20
6012.836954710609
 30
0.0
 40
3.75
100
AcDbArc
 50
0.0
 51
90.0
  0
LINE
  5
8E3
330
1F
100
AcDbEntity
  8
0
 62
     1
100
AcDbLine
 10
3469.335509579411
 20
6012.836954710609
 30
0.0
 11
3469.335509579411
 21
5982.836954710609
 31
0.0
  0
ARC
  5
8E4
330
1F
100
AcDbEntity
  8
0
 62
     1
100
AcDbCircle
 10
3465.585509579411
 20
5982.836954710609
 30
0.0
 40
3.75
100
AcDbArc
 50
270.0
 51
0.0
  0
LINE
  5
8E5
330
1F
100
AcDbEntity
  8
0
 62
     1
100
AcDbLine
 10
3434.335509579411
 20
5985.336954710608
 30
0.0
 11
3423.085509579411
 21
5985.336954710608
 31
0.0
  0
LINE
  5
8E6
330
1F
100
AcDbEntity
  8
0
 62
     1
100
AcDbLine
 10
3434.335509579411
 20
5991.586954710609
 30
0.0
 11
3423.085509579411
 21
5991.586954710609
 31
0.0
  0
LINE
  5
8E7
330
1F
100
AcDbEntity
  8
0
 62
     1
100
AcDbLine
 10
3434.335509579411
 20
5997.836954710608
 30
0.0
 11
3423.085509579411
 21
5997.836954710608
 31
0.0
  0
LINE
  5
8E8
330
1F
100
AcDbEntity
  8
0
 62
     1
100
AcDbLine
 10
3434.335509579415
 20
6004.086954710608
 30
0.0
 11
3423.085509579414
 21
6004.086954710608
 31
0.0
  0
LINE
  5
8E9
330
1F
100
AcDbEntity
  8
0
 62
     1
100
AcDbLine
 10
3434.335509579415
 20
6010.336954710608
 30
0.0
 11
3423.085509579414
 21
6010.336954710608
 31
0.0
  0
ARC
  5
8EA
330
1F
100
AcDbEntity
  8
0
 62
     1
100
AcDbCircle
 10
3423.085509579411
 20
5982.836954710609
 30
0.0
 40
3.75
100
AcDbArc
 50
180.0
 51
270.0
  0
LINE
  5
8EB
330
1F
100
AcDbEntity
  8
0
 62
     1
100
AcDbLine
 10
3419.33550957941
 20
6012.836954710609
 30
0.0
 11
3419.33550957941
 21
5982.836954710609
 31
0.0
  0
ARC
  5
8EC
330
1F
100
AcDbEntity
  8
0
 62
     1
100
AcDbCircle
 10
3423.085509579411
 20
6012.836954710609
 30
0.0
 40
3.75
100
AcDbArc
 50
90.0
 51
180.0
  0
LINE
  5
8ED
330
1F
100
AcDbEntity
  8
0
 62
     1
100
AcDbLine
 10
3423.085509579411
 20
6016.586954710608
 30
0.0
 11
3434.335509579411
 21
6016.586954710608
 31
0.0
  0
ARC
  5
8EE
330
1F
100
AcDbEntity
  8
0
 62
     1
100
AcDbCircle
 10
3434.335509579411
 20
6012.836954710609
 30
0.0
 40
3.75
100
AcDbArc
 50
0.0
 51
90.0
  0
LINE
  5
8EF
330
1F
100
AcDbEntity
  8
0
 62
     1
100
AcDbLine
 10
3438.085509579411
 20
6012.836954710609
 30
0.0
 11
3438.085509579411
 21
5982.836954710609
 31
0.0
  0
LINE
  5
8F0
330
1F
100
AcDbEntity
  8
0
 62
     1
100
AcDbLine
 10
3423.085509579411
 20
5979.086954710608
 30
0.0
 11
3434.335509579411
 21
5979.086954710608
 31
0.0
  0
ARC
  5
8F1
330
1F
100
AcDbEntity
  8
0
 62
     1
100
AcDbCircle
 10
3434.335509579411
 20
5982.836954710609
 30
0.0
 40
3.75
100
AcDbArc
 50
270.0
 51
0.0
  0
LWPOLYLINE
  5
8F2
330
1F
100
AcDbEntity
  8
0
 62
     1
100
AcDbPolyline
 90
        8
 70
     1
 43
0.0
 10
3472.46050957941
 20
6052.836954710609
 10
3416.210509579411
 20
6052.836954710609
 42
0.4142135623730951
 10
3413.710509579411
 20
6050.336954710608
 10
3413.710509579411
 20
5975.336954710609
 42
0.4142135623730951
 10
3416.210509579411
 20
5972.836954710608
 10
3472.46050957941
 20
5972.836954710608
 42
0.4142135623730951
 10
3474.96050957941
 20
5975.336954710609
 10
3474.96050957941
 20
6050.336954710608
 42
0.4142135623730951
  0
LWPOLYLINE
  5
8F3
330
1F
100
AcDbEntity
  8
0
 62
     1
100
AcDbPolyline
 90
        8
 70
     1
 43
0.0
 10
3472.46050957941
 20
6056.586954710609
 10
3416.210509579411
 20
6056.586954710609
 42
0.4142135623730951
 10
3409.96050957941
 20
6050.336954710608
 10
3409.96050957941
 20
5975.336954710609
 42
0.4142135623730951
 10
3416.210509579411
 20
5969.086954710609
 10
3472.46050957941
 20
5969.086954710609
 42
0.4142135623730951
 10
3478.710509579411
 20
5975.336954710609
 10
3478.710509579411
 20
6050.336954710608
 42
0.4142135623730951
  0
LWPOLYLINE
  5
8F4
330
1F
100
AcDbEntity
  8
0
 62
     1
100
AcDbPolyline
 90
        8
 70
     1
 43
0.0
 10
3579.905882512889
 20
6056.586954710609
 10
3523.655882512889
 20
6056.586954710609
 42
0.4142135623730951
 10
3517.405882512889
 20
6050.336954710608
 10
3517.405882512889
 20
5975.336954710609
 42
0.4142135623730951
 10
3523.655882512889
 20
5969.086954710609
 10
3579.905882512889
 20
5969.086954710609
 42
0.4142135623730951
 10
3586.155882512889
 20
5975.336954710609
 10
3586.155882512889
 20
6050.336954710608
 42
0.4142135623730951
  0
LWPOLYLINE
  5
8F5
330
1F
100
AcDbEntity
  8
0
 62
     1
100
AcDbPolyline
 90
        8
 70
     1
 43
0.0
 10
3579.905882512889
 20
6052.836954710609
 10
3523.655882512889
 20
6052.836954710609
 42
0.4142135623730951
 10
3521.155882512889
 20
6050.336954710608
 10
3521.155882512889
 20
5975.336954710609
 42
0.4142135623730951
 10
3523.655882512889
 20
5972.836954710608
 10
3579.905882512889
 20
5972.836954710608
 42
0.4142135623730951
 10
3582.405882512889
 20
5975.336954710609
 10
3582.405882512889
 20
6050.336954710608
 42
0.4142135623730951
  0
ARC
  5
8F6
330
1F
100
AcDbEntity
  8
0
 62
     1
100
AcDbCircle
 10
3541.780882512889
 20
5982.836954710609
 30
0.0
 40
3.75
100
AcDbArc
 50
270.0
 51
0.0
  0
LINE
  5
8F7
330
1F
100
AcDbEntity
  8
0
 62
     1
100
AcDbLine
 10
3530.530882512889
 20
5979.086954710608
 30
0.0
 11
3541.780882512889
 21
5979.086954710608
 31
0.0
  0
LINE
  5
8F8
330
1F
100
AcDbEntity
  8
0
 62
     1
100
AcDbLine
 10
3545.530882512889
 20
6012.836954710609
 30
0.0
 11
3545.530882512889
 21
5982.836954710609
 31
0.0
  0
ARC
  5
8F9
330
1F
100
AcDbEntity
  8
0
 62
     1
100
AcDbCircle
 10
3541.780882512889
 20
6012.836954710609
 30
0.0
 40
3.75
100
AcDbArc
 50
0.0
 51
90.0
  0
LINE
  5
8FA
330
1F
100
AcDbEntity
  8
0
 62
     1
100
AcDbLine
 10
3530.530882512889
 20
6016.586954710608
 30
0.0
 11
3541.780882512889
 21
6016.586954710608
 31
0.0
  0
ARC
  5
8FB
330
1F
100
AcDbEntity
  8
0
 62
     1
100
AcDbCircle
 10
3530.530882512889
 20
6012.836954710609
 30
0.0
 40
3.75
100
AcDbArc
 50
90.0
 51
180.0
  0
LINE
  5
8FC
330
1F
100
AcDbEntity
  8
0
 62
     1
100
AcDbLine
 10
3526.780882512889
 20
6012.836954710609
 30
0.0
 11
3526.780882512889
 21
5982.836954710609
 31
0.0
  0
ARC
  5
8FD
330
1F
100
AcDbEntity
  8
0
 62
     1
100
AcDbCircle
 10
3530.530882512889
 20
5982.836954710609
 30
0.0
 40
3.75
100
AcDbArc
 50
180.0
 51
270.0
  0
LINE
  5
8FE
330
1F
100
AcDbEntity
  8
0
 62
     1
100
AcDbLine
 10
3541.780882512892
 20
6010.336954710608
 30
0.0
 11
3530.530882512893
 21
6010.336954710608
 31
0.0
  0
LINE
  5
8FF
330
1F
100
AcDbEntity
  8
0
 62
     1
100
AcDbLine
 10
3541.780882512892
 20
6004.086954710608
 30
0.0
 11
3530.530882512893
 21
6004.086954710608
 31
0.0
  0
LINE
  5
900
330
1F
100
AcDbEntity
  8
0
 62
     1
100
AcDbLine
 10
3541.780882512889
 20
5997.836954710608
 30
0.0
 11
3530.530882512889
 21
5997.836954710608
 31
0.0
  0
LINE
  5
901
330
1F
100
AcDbEntity
  8
0
 62
     1
100
AcDbLine
 10
3541.780882512889
 20
5991.586954710609
 30
0.0
 11
3530.530882512889
 21
5991.586954710609
 31
0.0
  0
LINE
  5
902
330
1F
100
AcDbEntity
  8
0
 62
     1
100
AcDbLine
 10
3541.780882512889
 20
5985.336954710608
 30
0.0
 11
3530.530882512889
 21
5985.336954710608
 31
0.0
  0
ARC
  5
903
330
1F
100
AcDbEntity
  8
0
 62
     1
100
AcDbCircle
 10
3573.030882512889
 20
5982.836954710609
 30
0.0
 40
3.75
100
AcDbArc
 50
270.0
 51
0.0
  0
LINE
  5
904
330
1F
100
AcDbEntity
  8
0
 62
     1
100
AcDbLine
 10
3576.780882512889
 20
6012.836954710609
 30
0.0
 11
3576.780882512889
 21
5982.836954710609
 31
0.0
  0
ARC
  5
905
330
1F
100
AcDbEntity
  8
0
 62
     1
100
AcDbCircle
 10
3573.030882512889
 20
6012.836954710609
 30
0.0
 40
3.75
100
AcDbArc
 50
0.0
 51
90.0
  0
LINE
  5
906
330
1F
100
AcDbEntity
  8
0
 62
     1
100
AcDbLine
 10
3573.030882512889
 20
6016.586954710608
 30
0.0
 11
3561.780882512889
 21
6016.586954710608
 31
0.0
  0
ARC
  5
907
330
1F
100
AcDbEntity
  8
0
 62
     1
100
AcDbCircle
 10
3561.780882512889
 20
6012.836954710609
 30
0.0
 40
3.75
100
AcDbArc
 50
90.0
 51
180.0
  0
LINE
  5
908
330
1F
100
AcDbEntity
  8
0
 62
     1
100
AcDbLine
 10
3558.030882512889
 20
6012.836954710609
 30
0.0
 11
3558.030882512889
 21
5982.836954710609
 31
0.0
  0
LINE
  5
909
330
1F
100
AcDbEntity
  8
0
 62
     1
100
AcDbLine
 10
3573.030882512889
 20
5979.086954710608
 30
0.0
 11
3561.780882512889
 21
5979.086954710608
 31
0.0
  0
ARC
  5
90A
330
1F
100
AcDbEntity
  8
0
 62
     1
100
AcDbCircle
 10
3561.780882512889
 20
5982.836954710609
 30
0.0
 40
3.75
100
AcDbArc
 50
180.0
 51
270.0
  0
LINE
  5
90B
330
1F
100
AcDbEntity
  8
0
 62
     1
100
AcDbLine
 10
3573.030882512889
 20
5985.336954710608
 30
0.0
 11
3561.780882512889
 21
5985.336954710608
 31
0.0
  0
LINE
  5
90C
330
1F
100
AcDbEntity
  8
0
 62
     1
100
AcDbLine
 10
3573.030882512889
 20
5991.586954710609
 30
0.0
 11
3561.780882512889
 21
5991.586954710609
 31
0.0
  0
LINE
  5
90D
330
1F
100
AcDbEntity
  8
0
 62
     1
100
AcDbLine
 10
3573.030882512889
 20
5997.836954710608
 30
0.0
 11
3561.780882512889
 21
5997.836954710608
 31
0.0
  0
LINE
  5
90E
330
1F
100
AcDbEntity
  8
0
 62
     1
100
AcDbLine
 10
3573.030882512892
 20
6004.086954710608
 30
0.0
 11
3561.780882512893
 21
6004.086954710608
 31
0.0
  0
LINE
  5
90F
330
1F
100
AcDbEntity
  8
0
 62
     1
100
AcDbLine
 10
3573.030882512892
 20
6010.336954710608
 30
0.0
 11
3561.780882512893
 21
6010.336954710608
 31
0.0
  0
CIRCLE
  5
910
330
1F
100
AcDbEntity
  8
0
 62
     1
100
AcDbCircle
 10
3551.780882512889
 20
6038.542674146651
 30
0.0
 40
10.0
  0
CIRCLE
  5
911
330
1F
100
AcDbEntity
  8
0
 62
     1
100
AcDbCircle
 10
2146.748173775093
 20
6039.932524354772
 30
0.0
 40
10.0
  0
LINE
  5
912
330
1F
100
AcDbEntity
  8
0
 62
     1
100
AcDbLine
 10
2167.998173775097
 20
6011.72680491873
 30
0.0
 11
2156.748173775097
 21
6011.72680491873
 31
0.0
  0
LINE
  5
913
330
1F
100
AcDbEntity
  8
0
 62
     1
100
AcDbLine
 10
2167.998173775097
 20
6005.476804918729
 30
0.0
 11
2156.748173775097
 21
6005.476804918729
 31
0.0
  0
LINE
  5
914
330
1F
100
AcDbEntity
  8
0
 62
     1
100
AcDbLine
 10
2167.998173775093
 20
5999.22680491873
 30
0.0
 11
2156.748173775093
 21
5999.22680491873
 31
0.0
  0
LINE
  5
915
330
1F
100
AcDbEntity
  8
0
 62
     1
100
AcDbLine
 10
2167.998173775093
 20
5992.976804918729
 30
0.0
 11
2156.748173775093
 21
5992.976804918729
 31
0.0
  0
LINE
  5
916
330
1F
100
AcDbEntity
  8
0
 62
     1
100
AcDbLine
 10
2167.998173775093
 20
5986.726804918729
 30
0.0
 11
2156.748173775093
 21
5986.726804918729
 31
0.0
  0
ARC
  5
917
330
1F
100
AcDbEntity
  8
0
 62
     1
100
AcDbCircle
 10
2156.748173775093
 20
5984.22680491873
 30
0.0
 40
3.75
100
AcDbArc
 50
180.0
 51
270.0
  0
LINE
  5
918
330
1F
100
AcDbEntity
  8
0
 62
     1
100
AcDbLine
 10
2167.998173775093
 20
5980.47680491873
 30
0.0
 11
2156.748173775093
 21
5980.47680491873
 31
0.0
  0
LINE
  5
919
330
1F
100
AcDbEntity
  8
0
 62
     1
100
AcDbLine
 10
2152.998173775094
 20
6014.226804918729
 30
0.0
 11
2152.998173775094
 21
5984.22680491873
 31
0.0
  0
ARC
  5
91A
330
1F
100
AcDbEntity
  8
0
 62
     1
100
AcDbCircle
 10
2156.748173775093
 20
6014.226804918729
 30
0.0
 40
3.75
100
AcDbArc
 50
90.0
 51
180.0
  0
LINE
  5
91B
330
1F
100
AcDbEntity
  8
0
 62
     1
100
AcDbLine
 10
2167.998173775093
 20
6017.976804918729
 30
0.0
 11
2156.748173775093
 21
6017.976804918729
 31
0.0
  0
ARC
  5
91C
330
1F
100
AcDbEntity
  8
0
 62
     1
100
AcDbCircle
 10
2167.998173775093
 20
6014.226804918729
 30
0.0
 40
3.75
100
AcDbArc
 50
0.0
 51
90.0
  0
LINE
  5
91D
330
1F
100
AcDbEntity
  8
0
 62
     1
100
AcDbLine
 10
2171.748173775093
 20
6014.226804918729
 30
0.0
 11
2171.748173775093
 21
5984.22680491873
 31
0.0
  0
ARC
  5
91E
330
1F
100
AcDbEntity
  8
0
 62
     1
100
AcDbCircle
 10
2167.998173775093
 20
5984.22680491873
 30
0.0
 40
3.75
100
AcDbArc
 50
270.0
 51
0.0
  0
LINE
  5
91F
330
1F
100
AcDbEntity
  8
0
 62
     1
100
AcDbLine
 10
2136.748173775093
 20
5986.726804918729
 30
0.0
 11
2125.498173775093
 21
5986.726804918729
 31
0.0
  0
LINE
  5
920
330
1F
100
AcDbEntity
  8
0
 62
     1
100
AcDbLine
 10
2136.748173775093
 20
5992.976804918729
 30
0.0
 11
2125.498173775093
 21
5992.976804918729
 31
0.0
  0
LINE
  5
921
330
1F
100
AcDbEntity
  8
0
 62
     1
100
AcDbLine
 10
2136.748173775093
 20
5999.22680491873
 30
0.0
 11
2125.498173775093
 21
5999.22680491873
 31
0.0
  0
LINE
  5
922
330
1F
100
AcDbEntity
  8
0
 62
     1
100
AcDbLine
 10
2136.748173775097
 20
6005.476804918729
 30
0.0
 11
2125.498173775097
 21
6005.476804918729
 31
0.0
  0
LINE
  5
923
330
1F
100
AcDbEntity
  8
0
 62
     1
100
AcDbLine
 10
2136.748173775097
 20
6011.72680491873
 30
0.0
 11
2125.498173775097
 21
6011.72680491873
 31
0.0
  0
ARC
  5
924
330
1F
100
AcDbEntity
  8
0
 62
     1
100
AcDbCircle
 10
2125.498173775093
 20
5984.22680491873
 30
0.0
 40
3.75
100
AcDbArc
 50
180.0
 51
270.0
  0
LINE
  5
925
330
1F
100
AcDbEntity
  8
0
 62
     1
100
AcDbLine
 10
2121.748173775094
 20
6014.226804918729
 30
0.0
 11
2121.748173775094
 21
5984.22680491873
 31
0.0
  0
ARC
  5
926
330
1F
100
AcDbEntity
  8
0
 62
     1
100
AcDbCircle
 10
2125.498173775093
 20
6014.226804918729
 30
0.0
 40
3.75
100
AcDbArc
 50
90.0
 51
180.0
  0
LINE
  5
927
330
1F
100
AcDbEntity
  8
0
 62
     1
100
AcDbLine
 10
2125.498173775093
 20
6017.976804918729
 30
0.0
 11
2136.748173775093
 21
6017.976804918729
 31
0.0
  0
ARC
  5
928
330
1F
100
AcDbEntity
  8
0
 62
     1
100
AcDbCircle
 10
2136.748173775093
 20
6014.226804918729
 30
0.0
 40
3.75
100
AcDbArc
 50
0.0
 51
90.0
  0
LINE
  5
929
330
1F
100
AcDbEntity
  8
0
 62
     1
100
AcDbLine
 10
2140.498173775093
 20
6014.226804918729
 30
0.0
 11
2140.498173775093
 21
5984.22680491873
 31
0.0
  0
LINE
  5
92A
330
1F
100
AcDbEntity
  8
0
 62
     1
100
AcDbLine
 10
2125.498173775093
 20
5980.47680491873
 30
0.0
 11
2136.748173775093
 21
5980.47680491873
 31
0.0
  0
ARC
  5
92B
330
1F
100
AcDbEntity
  8
0
 62
     1
100
AcDbCircle
 10
2136.748173775093
 20
5984.22680491873
 30
0.0
 40
3.75
100
AcDbArc
 50
270.0
 51
0.0
  0
LWPOLYLINE
  5
92C
330
1F
100
AcDbEntity
  8
0
 62
     1
100
AcDbPolyline
 90
        8
 70
     1
 43
0.0
 10
2174.873173775093
 20
6054.22680491873
 10
2118.623173775093
 20
6054.22680491873
 42
0.4142135623730951
 10
2116.123173775093
 20
6051.726804918729
 10
2116.123173775093
 20
5976.72680491873
 42
0.4142135623730951
 10
2118.623173775093
 20
5974.226804918729
 10
2174.873173775093
 20
5974.226804918729
 42
0.4142135623730951
 10
2177.373173775093
 20
5976.72680491873
 10
2177.373173775093
 20
6051.726804918729
 42
0.4142135623730951
  0
LWPOLYLINE
  5
92D
330
1F
100
AcDbEntity
  8
0
 62
     1
100
AcDbPolyline
 90
        8
 70
     1
 43
0.0
 10
2174.873173775093
 20
6057.976804918729
 10
2118.623173775093
 20
6057.976804918729
 42
0.4142135623730951
 10
2112.373173775093
 20
6051.726804918729
 10
2112.373173775093
 20
5976.72680491873
 42
0.4142135623730951
 10
2118.623173775093
 20
5970.476804918729
 10
2174.873173775093
 20
5970.476804918729
 42
0.4142135623730951
 10
2181.123173775093
 20
5976.72680491873
 10
2181.123173775093
 20
6051.726804918729
 42
0.4142135623730951
  0
LWPOLYLINE
  5
92E
330
1F
100
AcDbEntity
  8
0
 62
     1
100
AcDbPolyline
 90
        8
 70
     1
 43
0.0
 10
2067.427800841615
 20
6057.976804918729
 10
2011.177800841615
 20
6057.976804918729
 42
0.4142135623730951
 10
2004.927800841615
 20
6051.726804918729
 10
2004.927800841615
 20
5976.72680491873
 42
0.4142135623730951
 10
2011.177800841615
 20
5970.476804918729
 10
2067.427800841615
 20
5970.476804918729
 42
0.4142135623730951
 10
2073.677800841615
 20
5976.72680491873
 10
2073.677800841615
 20
6051.726804918729
 42
0.4142135623730951
  0
LWPOLYLINE
  5
92F
330
1F
100
AcDbEntity
  8
0
 62
     1
100
AcDbPolyline
 90
        8
 70
     1
 43
0.0
 10
2067.427800841615
 20
6054.22680491873
 10
2011.177800841615
 20
6054.22680491873
 42
0.4142135623730951
 10
2008.677800841615
 20
6051.726804918729
 10
2008.677800841615
 20
5976.72680491873
 42
0.4142135623730951
 10
2011.177800841615
 20
5974.226804918729
 10
2067.427800841615
 20
5974.226804918729
 42
0.4142135623730951
 10
2069.927800841615
 20
5976.72680491873
 10
2069.927800841615
 20
6051.726804918729
 42
0.4142135623730951
  0
ARC
  5
930
330
1F
100
AcDbEntity
  8
0
 62
     1
100
AcDbCircle
 10
2029.302800841615
 20
5984.22680491873
 30
0.0
 40
3.75
100
AcDbArc
 50
270.0
 51
0.0
  0
LINE
  5
931
330
1F
100
AcDbEntity
  8
0
 62
     1
100
AcDbLine
 10
2018.052800841615
 20
5980.47680491873
 30
0.0
 11
2029.302800841615
 21
5980.47680491873
 31
0.0
  0
LINE
  5
932
330
1F
100
AcDbEntity
  8
0
 62
     1
100
AcDbLine
 10
2033.052800841615
 20
6014.226804918729
 30
0.0
 11
2033.052800841615
 21
5984.22680491873
 31
0.0
  0
ARC
  5
933
330
1F
100
AcDbEntity
  8
0
 62
     1
100
AcDbCircle
 10
2029.302800841615
 20
6014.226804918729
 30
0.0
 40
3.75
100
AcDbArc
 50
0.0
 51
90.0
  0
LINE
  5
934
330
1F
100
AcDbEntity
  8
0
 62
     1
100
AcDbLine
 10
2018.052800841615
 20
6017.976804918729
 30
0.0
 11
2029.302800841615
 21
6017.976804918729
 31
0.0
  0
ARC
  5
935
330
1F
100
AcDbEntity
  8
0
 62
     1
100
AcDbCircle
 10
2018.052800841615
 20
6014.226804918729
 30
0.0
 40
3.75
100
AcDbArc
 50
90.0
 51
180.0
  0
LINE
  5
936
330
1F
100
AcDbEntity
  8
0
 62
     1
100
AcDbLine
 10
2014.302800841615
 20
6014.226804918729
 30
0.0
 11
2014.302800841615
 21
5984.22680491873
 31
0.0
  0
ARC
  5
937
330
1F
100
AcDbEntity
  8
0
 62
     1
100
AcDbCircle
 10
2018.052800841615
 20
5984.22680491873
 30
0.0
 40
3.75
100
AcDbArc
 50
180.0
 51
270.0
  0
LINE
  5
938
330
1F
100
AcDbEntity
  8
0
 62
     1
100
AcDbLine
 10
2029.302800841618
 20
6011.72680491873
 30
0.0
 11
2018.052800841619
 21
6011.72680491873
 31
0.0
  0
LINE
  5
939
330
1F
100
AcDbEntity
  8
0
 62
     1
100
AcDbLine
 10
2029.302800841618
 20
6005.476804918729
 30
0.0
 11
2018.052800841619
 21
6005.476804918729
 31
0.0
  0
LINE
  5
93A
330
1F
100
AcDbEntity
  8
0
 62
     1
100
AcDbLine
 10
2029.302800841615
 20
5999.22680491873
 30
0.0
 11
2018.052800841615
 21
5999.22680491873
 31
0.0
  0
LINE
  5
93B
330
1F
100
AcDbEntity
  8
0
 62
     1
100
AcDbLine
 10
2029.302800841615
 20
5992.976804918729
 30
0.0
 11
2018.052800841615
 21
5992.976804918729
 31
0.0
  0
LINE
  5
93C
330
1F
100
AcDbEntity
  8
0
 62
     1
100
AcDbLine
 10
2029.302800841615
 20
5986.726804918729
 30
0.0
 11
2018.052800841615
 21
5986.726804918729
 31
0.0
  0
ARC
  5
93D
330
1F
100
AcDbEntity
  8
0
 62
     1
100
AcDbCircle
 10
2060.552800841615
 20
5984.22680491873
 30
0.0
 40
3.75
100
AcDbArc
 50
270.0
 51
0.0
  0
LINE
  5
93E
330
1F
100
AcDbEntity
  8
0
 62
     1
100
AcDbLine
 10
2064.302800841615
 20
6014.226804918729
 30
0.0
 11
2064.302800841615
 21
5984.22680491873
 31
0.0
  0
ARC
  5
93F
330
1F
100
AcDbEntity
  8
0
 62
     1
100
AcDbCircle
 10
2060.552800841615
 20
6014.226804918729
 30
0.0
 40
3.75
100
AcDbArc
 50
0.0
 51
90.0
  0
LINE
  5
940
330
1F
100
AcDbEntity
  8
0
 62
     1
100
AcDbLine
 10
2060.552800841615
 20
6017.976804918729
 30
0.0
 11
2049.302800841615
 21
6017.976804918729
 31
0.0
  0
ARC
  5
941
330
1F
100
AcDbEntity
  8
0
 62
     1
100
AcDbCircle
 10
2049.302800841615
 20
6014.226804918729
 30
0.0
 40
3.75
100
AcDbArc
 50
90.0
 51
180.0
  0
LINE
  5
942
330
1F
100
AcDbEntity
  8
0
 62
     1
100
AcDbLine
 10
2045.552800841615
 20
6014.226804918729
 30
0.0
 11
2045.552800841615
 21
5984.22680491873
 31
0.0
  0
LINE
  5
943
330
1F
100
AcDbEntity
  8
0
 62
     1
100
AcDbLine
 10
2060.552800841615
 20
5980.47680491873
 30
0.0
 11
2049.302800841615
 21
5980.47680491873
 31
0.0
  0
ARC
  5
944
330
1F
100
AcDbEntity
  8
0
 62
     1
100
AcDbCircle
 10
2049.302800841615
 20
5984.22680491873
 30
0.0
 40
3.75
100
AcDbArc
 50
180.0
 51
270.0
  0
LINE
  5
945
330
1F
100
AcDbEntity
  8
0
 62
     1
100
AcDbLine
 10
2060.552800841615
 20
5986.726804918729
 30
0.0
 11
2049.302800841615
 21
5986.726804918729
 31
0.0
  0
LINE
  5
946
330
1F
100
AcDbEntity
  8
0
 62
     1
100
AcDbLine
 10
2060.552800841615
 20
5992.976804918729
 30
0.0
 11
2049.302800841615
 21
5992.976804918729
 31
0.0
  0
LINE
  5
947
330
1F
100
AcDbEntity
  8
0
 62
     1
100
AcDbLine
 10
2060.552800841615
 20
5999.22680491873
 30
0.0
 11
2049.302800841615
 21
5999.22680491873
 31
0.0
  0
LINE
  5
948
330
1F
100
AcDbEntity
  8
0
 62
     1
100
AcDbLine
 10
2060.552800841619
 20
6005.476804918729
 30
0.0
 11
2049.302800841619
 21
6005.476804918729
 31
0.0
  0
LINE
  5
949
330
1F
100
AcDbEntity
  8
0
 62
     1
100
AcDbLine
 10
2060.552800841619
 20
6011.72680491873
 30
0.0
 11
2049.302800841619
 21
6011.72680491873
 31
0.0
  0
CIRCLE
  5
94A
330
1F
100
AcDbEntity
  8
0
 62
     1
100
AcDbCircle
 10
2039.302800841615
 20
6039.932524354772
 30
0.0
 40
10.0
  0
LWPOLYLINE
  5
94B
330
1F
100
AcDbEntity
  8
0
 62
     1
100
AcDbPolyline
 90
        8
 70
     1
 43
0.0
 10
1956.677216484444
 20
6057.976804918729
 10
1900.427216484444
 20
6057.976804918729
 42
0.4142135623730951
 10
1894.177216484444
 20
6051.726804918729
 10
1894.177216484444
 20
5976.72680491873
 42
0.4142135623730951
 10
1900.427216484444
 20
5970.476804918729
 10
1956.677216484444
 20
5970.476804918729
 42
0.4142135623730951
 10
1962.927216484444
 20
5976.72680491873
 10
1962.927216484444
 20
6051.726804918729
 42
0.4142135623730951
  0
CIRCLE
  5
94C
330
1F
100
AcDbEntity
  8
0
 62
     1
100
AcDbCircle
 10
1928.552216484444
 20
6039.932524354772
 30
0.0
 40
10.0
  0
LINE
  5
94D
330
1F
100
AcDbEntity
  8
0
 62
     1
100
AcDbLine
 10
1949.802216484448
 20
6011.72680491873
 30
0.0
 11
1938.552216484447
 21
6011.72680491873
 31
0.0
  0
LINE
  5
94E
330
1F
100
AcDbEntity
  8
0
 62
     1
100
AcDbLine
 10
1949.802216484448
 20
6005.476804918729
 30
0.0
 11
1938.552216484447
 21
6005.476804918729
 31
0.0
  0
LINE
  5
94F
330
1F
100
AcDbEntity
  8
0
 62
     1
100
AcDbLine
 10
1949.802216484444
 20
5999.22680491873
 30
0.0
 11
1938.552216484444
 21
5999.22680491873
 31
0.0
  0
LINE
  5
950
330
1F
100
AcDbEntity
  8
0
 62
     1
100
AcDbLine
 10
1949.802216484444
 20
5992.976804918729
 30
0.0
 11
1938.552216484444
 21
5992.976804918729
 31
0.0
  0
LINE
  5
951
330
1F
100
AcDbEntity
  8
0
 62
     1
100
AcDbLine
 10
1949.802216484444
 20
5986.726804918729
 30
0.0
 11
1938.552216484444
 21
5986.726804918729
 31
0.0
  0
ARC
  5
952
330
1F
100
AcDbEntity
  8
0
 62
     1
100
AcDbCircle
 10
1938.552216484444
 20
5984.22680491873
 30
0.0
 40
3.75
100
AcDbArc
 50
180.0
 51
270.0
  0
LINE
  5
953
330
1F
100
AcDbEntity
  8
0
 62
     1
100
AcDbLine
 10
1949.802216484444
 20
5980.47680491873
 30
0.0
 11
1938.552216484444
 21
5980.47680491873
 31
0.0
  0
LINE
  5
954
330
1F
100
AcDbEntity
  8
0
 62
     1
100
AcDbLine
 10
1934.802216484444
 20
6014.226804918729
 30
0.0
 11
1934.802216484444
 21
5984.22680491873
 31
0.0
  0
ARC
  5
955
330
1F
100
AcDbEntity
  8
0
 62
     1
100
AcDbCircle
 10
1938.552216484444
 20
6014.226804918729
 30
0.0
 40
3.75
100
AcDbArc
 50
90.0
 51
180.0
  0
LINE
  5
956
330
1F
100
AcDbEntity
  8
0
 62
     1
100
AcDbLine
 10
1949.802216484444
 20
6017.976804918729
 30
0.0
 11
1938.552216484444
 21
6017.976804918729
 31
0.0
  0
ARC
  5
957
330
1F
100
AcDbEntity
  8
0
 62
     1
100
AcDbCircle
 10
1949.802216484444
 20
6014.226804918729
 30
0.0
 40
3.75
100
AcDbArc
 50
0.0
 51
90.0
  0
LINE
  5
958
330
1F
100
AcDbEntity
  8
0
 62
     1
100
AcDbLine
 10
1953.552216484444
 20
6014.226804918729
 30
0.0
 11
1953.552216484444
 21
5984.22680491873
 31
0.0
  0
ARC
  5
959
330
1F
100
AcDbEntity
  8
0
 62
     1
100
AcDbCircle
 10
1949.802216484444
 20
5984.22680491873
 30
0.0
 40
3.75
100
AcDbArc
 50
270.0
 51
0.0
  0
LINE
  5
95A
330
1F
100
AcDbEntity
  8
0
 62
     1
100
AcDbLine
 10
1918.552216484444
 20
5986.726804918729
 30
0.0
 11
1907.302216484444
 21
5986.726804918729
 31
0.0
  0
LINE
  5
95B
330
1F
100
AcDbEntity
  8
0
 62
     1
100
AcDbLine
 10
1918.552216484444
 20
5992.976804918729
 30
0.0
 11
1907.302216484444
 21
5992.976804918729
 31
0.0
  0
LINE
  5
95C
330
1F
100
AcDbEntity
  8
0
 62
     1
100
AcDbLine
 10
1918.552216484444
 20
5999.22680491873
 30
0.0
 11
1907.302216484444
 21
5999.22680491873
 31
0.0
  0
LINE
  5
95D
330
1F
100
AcDbEntity
  8
0
 62
     1
100
AcDbLine
 10
1918.552216484448
 20
6005.476804918729
 30
0.0
 11
1907.302216484447
 21
6005.476804918729
 31
0.0
  0
LINE
  5
95E
330
1F
100
AcDbEntity
  8
0
 62
     1
100
AcDbLine
 10
1918.552216484448
 20
6011.72680491873
 30
0.0
 11
1907.302216484447
 21
6011.72680491873
 31
0.0
  0
ARC
  5
95F
330
1F
100
AcDbEntity
  8
0
 62
     1
100
AcDbCircle
 10
1907.302216484444
 20
5984.22680491873
 30
0.0
 40
3.75
100
AcDbArc
 50
180.0
 51
270.0
  0
LINE
  5
960
330
1F
100
AcDbEntity
  8
0
 62
     1
100
AcDbLine
 10
1903.552216484444
 20
6014.226804918729
 30
0.0
 11
1903.552216484444
 21
5984.22680491873
 31
0.0
  0
ARC
  5
961
330
1F
100
AcDbEntity
  8
0
 62
     1
100
AcDbCircle
 10
1907.302216484444
 20
6014.226804918729
 30
0.0
 40
3.75
100
AcDbArc
 50
90.0
 51
180.0
  0
LINE
  5
962
330
1F
100
AcDbEntity
  8
0
 62
     1
100
AcDbLine
 10
1907.302216484444
 20
6017.976804918729
 30
0.0
 11
1918.552216484444
 21
6017.976804918729
 31
0.0
  0
ARC
  5
963
330
1F
100
AcDbEntity
  8
0
 62
     1
100
AcDbCircle
 10
1918.552216484444
 20
6014.226804918729
 30
0.0
 40
3.75
100
AcDbArc
 50
0.0
 51
90.0
  0
LINE
  5
964
330
1F
100
AcDbEntity
  8
0
 62
     1
100
AcDbLine
 10
1922.302216484444
 20
6014.226804918729
 30
0.0
 11
1922.302216484444
 21
5984.22680491873
 31
0.0
  0
LINE
  5
965
330
1F
100
AcDbEntity
  8
0
 62
     1
100
AcDbLine
 10
1907.302216484444
 20
5980.47680491873
 30
0.0
 11
1918.552216484444
 21
5980.47680491873
 31
0.0
  0
ARC
  5
966
330
1F
100
AcDbEntity
  8
0
 62
     1
100
AcDbCircle
 10
1918.552216484444
 20
5984.22680491873
 30
0.0
 40
3.75
100
AcDbArc
 50
270.0
 51
0.0
  0
LWPOLYLINE
  5
967
330
1F
100
AcDbEntity
  8
0
 62
     1
100
AcDbPolyline
 90
        8
 70
     1
 43
0.0
 10
1956.677216484444
 20
6054.22680491873
 10
1900.427216484444
 20
6054.22680491873
 42
0.4142135623730951
 10
1897.927216484444
 20
6051.726804918729
 10
1897.927216484444
 20
5976.72680491873
 42
0.4142135623730951
 10
1900.427216484444
 20
5974.226804918729
 10
1956.677216484444
 20
5974.226804918729
 42
0.4142135623730951
 10
1959.177216484444
 20
5976.72680491873
 10
1959.177216484444
 20
6051.726804918729
 42
0.4142135623730951
  0
CIRCLE
  5
968
330
1F
100
AcDbEntity
  8
0
 62
     1
100
AcDbCircle
 10
1816.699644970023
 20
6039.932524354772
 30
0.0
 40
10.0
  0
LINE
  5
969
330
1F
100
AcDbEntity
  8
0
 62
     1
100
AcDbLine
 10
1837.949644970027
 20
6011.72680491873
 30
0.0
 11
1826.699644970027
 21
6011.72680491873
 31
0.0
  0
LINE
  5
96A
330
1F
100
AcDbEntity
  8
0
 62
     1
100
AcDbLine
 10
1837.949644970027
 20
6005.476804918729
 30
0.0
 11
1826.699644970027
 21
6005.476804918729
 31
0.0
  0
LINE
  5
96B
330
1F
100
AcDbEntity
  8
0
 62
     1
100
AcDbLine
 10
1837.949644970023
 20
5999.22680491873
 30
0.0
 11
1826.699644970023
 21
5999.22680491873
 31
0.0
  0
LINE
  5
96C
330
1F
100
AcDbEntity
  8
0
 62
     1
100
AcDbLine
 10
1837.949644970023
 20
5992.976804918729
 30
0.0
 11
1826.699644970023
 21
5992.976804918729
 31
0.0
  0
LINE
  5
96D
330
1F
100
AcDbEntity
  8
0
 62
     1
100
AcDbLine
 10
1837.949644970023
 20
5986.726804918729
 30
0.0
 11
1826.699644970023
 21
5986.726804918729
 31
0.0
  0
ARC
  5
96E
330
1F
100
AcDbEntity
  8
0
 62
     1
100
AcDbCircle
 10
1826.699644970023
 20
5984.22680491873
 30
0.0
 40
3.75
100
AcDbArc
 50
180.0
 51
270.0
  0
LINE
  5
96F
330
1F
100
AcDbEntity
  8
0
 62
     1
100
AcDbLine
 10
1837.949644970023
 20
5980.47680491873
 30
0.0
 11
1826.699644970023
 21
5980.47680491873
 31
0.0
  0
LINE
  5
970
330
1F
100
AcDbEntity
  8
0
 62
     1
100
AcDbLine
 10
1822.949644970023
 20
6014.226804918729
 30
0.0
 11
1822.949644970023
 21
5984.22680491873
 31
0.0
  0
ARC
  5
971
330
1F
100
AcDbEntity
  8
0
 62
     1
100
AcDbCircle
 10
1826.699644970023
 20
6014.226804918729
 30
0.0
 40
3.75
100
AcDbArc
 50
90.0
 51
180.0
  0
LINE
  5
972
330
1F
100
AcDbEntity
  8
0
 62
     1
100
AcDbLine
 10
1837.949644970023
 20
6017.976804918729
 30
0.0
 11
1826.699644970023
 21
6017.976804918729
 31
0.0
  0
ARC
  5
973
330
1F
100
AcDbEntity
  8
0
 62
     1
100
AcDbCircle
 10
1837.949644970023
 20
6014.226804918729
 30
0.0
 40
3.75
100
AcDbArc
 50
0.0
 51
90.0
  0
LINE
  5
974
330
1F
100
AcDbEntity
  8
0
 62
     1
100
AcDbLine
 10
1841.699644970023
 20
6014.226804918729
 30
0.0
 11
1841.699644970023
 21
5984.22680491873
 31
0.0
  0
ARC
  5
975
330
1F
100
AcDbEntity
  8
0
 62
     1
100
AcDbCircle
 10
1837.949644970023
 20
5984.22680491873
 30
0.0
 40
3.75
100
AcDbArc
 50
270.0
 51
0.0
  0
LINE
  5
976
330
1F
100
AcDbEntity
  8
0
 62
     1
100
AcDbLine
 10
1806.699644970023
 20
5986.726804918729
 30
0.0
 11
1795.449644970023
 21
5986.726804918729
 31
0.0
  0
LINE
  5
977
330
1F
100
AcDbEntity
  8
0
 62
     1
100
AcDbLine
 10
1806.699644970023
 20
5992.976804918729
 30
0.0
 11
1795.449644970023
 21
5992.976804918729
 31
0.0
  0
LINE
  5
978
330
1F
100
AcDbEntity
  8
0
 62
     1
100
AcDbLine
 10
1806.699644970023
 20
5999.22680491873
 30
0.0
 11
1795.449644970023
 21
5999.22680491873
 31
0.0
  0
LINE
  5
979
330
1F
100
AcDbEntity
  8
0
 62
     1
100
AcDbLine
 10
1806.699644970027
 20
6005.476804918729
 30
0.0
 11
1795.449644970027
 21
6005.476804918729
 31
0.0
  0
LINE
  5
97A
330
1F
100
AcDbEntity
  8
0
 62
     1
100
AcDbLine
 10
1806.699644970027
 20
6011.72680491873
 30
0.0
 11
1795.449644970027
 21
6011.72680491873
 31
0.0
  0
ARC
  5
97B
330
1F
100
AcDbEntity
  8
0
 62
     1
100
AcDbCircle
 10
1795.449644970023
 20
5984.22680491873
 30
0.0
 40
3.75
100
AcDbArc
 50
180.0
 51
270.0
  0
LINE
  5
97C
330
1F
100
AcDbEntity
  8
0
 62
     1
100
AcDbLine
 10
1791.699644970023
 20
6014.226804918729
 30
0.0
 11
1791.699644970023
 21
5984.22680491873
 31
0.0
  0
ARC
  5
97D
330
1F
100
AcDbEntity
  8
0
 62
     1
100
AcDbCircle
 10
1795.449644970023
 20
6014.226804918729
 30
0.0
 40
3.75
100
AcDbArc
 50
90.0
 51
180.0
  0
LINE
  5
97E
330
1F
100
AcDbEntity
  8
0
 62
     1
100
AcDbLine
 10
1795.449644970023
 20
6017.976804918729
 30
0.0
 11
1806.699644970023
 21
6017.976804918729
 31
0.0
  0
ARC
  5
97F
330
1F
100
AcDbEntity
  8
0
 62
     1
100
AcDbCircle
 10
1806.699644970023
 20
6014.226804918729
 30
0.0
 40
3.75
100
AcDbArc
 50
0.0
 51
90.0
  0
LINE
  5
980
330
1F
100
AcDbEntity
  8
0
 62
     1
100
AcDbLine
 10
1810.449644970023
 20
6014.226804918729
 30
0.0
 11
1810.449644970023
 21
5984.22680491873
 31
0.0
  0
LINE
  5
981
330
1F
100
AcDbEntity
  8
0
 62
     1
100
AcDbLine
 10
1795.449644970023
 20
5980.47680491873
 30
0.0
 11
1806.699644970023
 21
5980.47680491873
 31
0.0
  0
ARC
  5
982
330
1F
100
AcDbEntity
  8
0
 62
     1
100
AcDbCircle
 10
1806.699644970023
 20
5984.22680491873
 30
0.0
 40
3.75
100
AcDbArc
 50
270.0
 51
0.0
  0
LWPOLYLINE
  5
983
330
1F
100
AcDbEntity
  8
0
 62
     1
100
AcDbPolyline
 90
        8
 70
     1
 43
0.0
 10
1844.824644970023
 20
6054.22680491873
 10
1788.574644970023
 20
6054.22680491873
 42
0.4142135623730951
 10
1786.074644970023
 20
6051.726804918729
 10
1786.074644970023
 20
5976.72680491873
 42
0.4142135623730951
 10
1788.574644970023
 20
5974.226804918729
 10
1844.824644970023
 20
5974.226804918729
 42
0.4142135623730951
 10
1847.324644970023
 20
5976.72680491873
 10
1847.324644970023
 20
6051.726804918729
 42
0.4142135623730951
  0
LWPOLYLINE
  5
984
330
1F
100
AcDbEntity
  8
0
 62
     1
100
AcDbPolyline
 90
        8
 70
     1
 43
0.0
 10
1844.824644970023
 20
6057.976804918729
 10
1788.574644970023
 20
6057.976804918729
 42
0.4142135623730951
 10
1782.324644970023
 20
6051.726804918729
 10
1782.324644970023
 20
5976.72680491873
 42
0.4142135623730951
 10
1788.574644970023
 20
5970.476804918729
 10
1844.824644970023
 20
5970.476804918729
 42
0.4142135623730951
 10
1851.074644970023
 20
5976.72680491873
 10
1851.074644970023
 20
6051.726804918729
 42
0.4142135623730951
  0
LINE
  5
985
330
1F
100
AcDbEntity
  8
MUR-EST
100
AcDbLine
 10
2706.700096203507
 20
1732.589660203311
 30
0.0
 11
2706.700096203507
 21
1702.589660203315
 31
0.0
  0
LINE
  5
986
330
1F
100
AcDbEntity
  8
MUR-EST
100
AcDbLine
 10
2631.700096203506
 20
1732.589660203311
 30
0.0
 11
2631.700096203506
 21
1702.850479070441
 31
0.0
  0
LINE
  5
987
330
1F
100
AcDbEntity
  8
MUR-EST
100
AcDbLine
 10
1668.725923540846
 20
2432.268653489544
 30
0.0
 11
2383.725923540847
 21
2432.268653489544
 31
0.0
  0
LINE
  5
988
330
1F
100
AcDbEntity
  8
MUR-EST
100
AcDbLine
 10
1668.725923540846
 20
2462.268653489538
 30
0.0
 11
2328.725923540847
 21
2462.268653489538
 31
0.0
  0
LINE
  5
989
330
1F
100
AcDbEntity
  8
MUR-EST
100
AcDbLine
 10
3704.80225195282
 20
2462.268653489538
 30
0.0
 11
3044.80225195282
 21
2462.268653489538
 31
0.0
  0
LINE
  5
98A
330
1F
100
AcDbEntity
  8
SCALE
100
AcDbLine
 10
2984.80225195282
 20
2092.26865348954
 30
0.0
 11
2804.802251952822
 21
2092.26865348954
 31
0.0
  0
LINE
  5
98B
330
1F
100
AcDbEntity
  8
SCALE
100
AcDbLine
 10
2984.80225195282
 20
2122.26865348954
 30
0.0
 11
2804.802251952822
 21
2122.26865348954
 31
0.0
  0
LINE
  5
98C
330
1F
100
AcDbEntity
  8
SCALE
100
AcDbLine
 10
2984.80225195282
 20
2152.268653489542
 30
0.0
 11
2804.802251952822
 21
2152.268653489542
 31
0.0
  0
LINE
  5
98D
330
1F
100
AcDbEntity
  8
SCALE
100
AcDbLine
 10
2984.80225195282
 20
1942.268653489545
 30
0.0
 11
2383.725923540845
 21
1942.268653489534
 31
0.0
  0
LINE
  5
98E
330
1F
100
AcDbEntity
  8
SCALE
100
AcDbLine
 10
2984.80225195282
 20
1972.26865348954
 30
0.0
 11
2804.80225195282
 21
1972.26865348954
 31
0.0
  0
LINE
  5
98F
330
1F
100
AcDbEntity
  8
SCALE
100
AcDbLine
 10
2984.80225195282
 20
2002.268653489542
 30
0.0
 11
2804.80225195282
 21
2002.268653489542
 31
0.0
  0
LINE
  5
990
330
1F
100
AcDbEntity
  8
SCALE
100
AcDbLine
 10
2984.80225195282
 20
2032.268653489543
 30
0.0
 11
2804.80225195282
 21
2032.268653489543
 31
0.0
  0
LINE
  5
991
330
1F
100
AcDbEntity
  8
SCALE
100
AcDbLine
 10
2984.80225195282
 20
2062.268653489543
 30
0.0
 11
2804.802251952822
 21
2062.268653489542
 31
0.0
  0
LINE
  5
992
330
1F
100
AcDbEntity
  8
SCALE
100
AcDbLine
 10
2984.80225195282
 20
2182.268653489543
 30
0.0
 11
2804.802251952822
 21
2182.26865348954
 31
0.0
  0
LINE
  5
993
330
1F
100
AcDbEntity
  8
SCALE
100
AcDbLine
 10
2984.80225195282
 20
2212.268653489538
 30
0.0
 11
2383.725923540847
 21
2212.268653489538
 31
0.0
  0
LINE
  5
994
330
1F
100
AcDbEntity
  8
SCALE
100
AcDbLine
 10
2894.802251952821
 20
2212.268653489538
 30
0.0
 11
2894.802251952821
 21
1942.268653489545
 31
0.0
  0
LINE
  5
995
330
1F
100
AcDbEntity
  8
SCALE
100
AcDbLine
 10
2473.725923540845
 20
2212.268653489538
 30
0.0
 11
2473.725923540845
 21
1942.26865348954
 31
0.0
  0
LINE
  5
996
330
1F
100
AcDbEntity
  8
SCALE
100
AcDbLine
 10
2563.725923540845
 20
2182.268653489536
 30
0.0
 11
2383.725923540847
 21
2182.268653489536
 31
0.0
  0
LINE
  5
997
330
1F
100
AcDbEntity
  8
MUR-EST
100
AcDbLine
 10
2383.725923540848
 20
2462.268653489538
 30
0.0
 11
2383.725923540847
 21
2432.268653489544
 31
0.0
  0
LINE
  5
998
330
1F
100
AcDbEntity
  8
MUR-EST
100
AcDbLine
 10
2348.725923540847
 20
2462.268653489538
 30
0.0
 11
2383.725923540848
 21
2462.268653489538
 31
0.0
  0
LINE
  5
999
330
1F
100
AcDbEntity
  8
SCALE
100
AcDbLine
 10
2895.121387132576
 20
2212.253840139234
 30
0.0
 11
2913.094049237866
 21
2182.390638889968
 31
0.0
  0
LINE
  5
99A
330
1F
100
AcDbEntity
  8
SCALE
100
AcDbLine
 10
2894.802251952821
 20
2212.268653489538
 30
0.0
 11
2875.236726367154
 21
2182.390638889968
 31
0.0
  0
LINE
  5
99B
330
1F
100
AcDbEntity
  8
SCALE
100
AcDbLine
 10
2563.725923540845
 20
2062.268653489538
 30
0.0
 11
2383.725923540847
 21
2062.268653489538
 31
0.0
  0
LINE
  5
99C
330
1F
100
AcDbEntity
  8
SCALE
100
AcDbLine
 10
2563.725923540847
 20
1972.26865348954
 30
0.0
 11
2383.725923540847
 21
1972.26865348954
 31
0.0
  0
LINE
  5
99D
330
1F
100
AcDbEntity
  8
SCALE
100
AcDbLine
 10
2563.725923540845
 20
2002.268653489542
 30
0.0
 11
2383.725923540847
 21
2002.268653489542
 31
0.0
  0
LINE
  5
99E
330
1F
100
AcDbEntity
  8
SCALE
100
AcDbLine
 10
2563.725923540845
 20
2032.268653489543
 30
0.0
 11
2383.725923540847
 21
2032.268653489543
 31
0.0
  0
LINE
  5
99F
330
1F
100
AcDbEntity
  8
SCALE
100
AcDbLine
 10
2563.725923540845
 20
2092.26865348954
 30
0.0
 11
2383.725923540847
 21
2092.26865348954
 31
0.0
  0
LINE
  5
9A0
330
1F
100
AcDbEntity
  8
SCALE
100
AcDbLine
 10
2563.725923540845
 20
2122.26865348954
 30
0.0
 11
2383.725923540847
 21
2122.26865348954
 31
0.0
  0
LINE
  5
9A1
330
1F
100
AcDbEntity
  8
SCALE
100
AcDbLine
 10
2563.725923540845
 20
2152.268653489542
 30
0.0
 11
2383.725923540847
 21
2152.268653489542
 31
0.0
  0
LINE
  5
9A2
330
1F
100
AcDbEntity
  8
SCALE
100
AcDbLine
 10
2474.00874742419
 20
1941.112522423232
 30
0.0
 11
2485.187183954916
 21
1972.26865348954
 31
0.0
  0
LINE
  5
9A3
330
1F
100
AcDbEntity
  8
SCALE
100
AcDbLine
 10
2473.725923540845
 20
1940.172417610332
 30
0.0
 11
2461.435141422514
 21
1972.26865348954
 31
0.0
  0
LINE
  5
9A4
330
1F
100
AcDbEntity
  8
SCALE
100
AcDbLine
 10
2473.725923540845
 20
1940.172417610332
 30
0.0
 11
2461.435141422514
 21
1972.26865348954
 31
0.0
  0
LINE
  5
9A5
330
1F
100
AcDbEntity
  8
MUR-EST
100
AcDbLine
 10
3004.80225195282
 20
2192.26865348954
 30
0.0
 11
3004.80225195282
 21
1972.26865348954
 31
0.0
  0
LINE
  5
9A6
330
1F
100
AcDbEntity
  8
MUR-EST
100
AcDbLine
 10
2984.80225195282
 20
2192.26865348954
 30
0.0
 11
2984.80225195282
 21
1972.26865348954
 31
0.0
  0
LINE
  5
9A7
330
1F
100
AcDbEntity
  8
MUR-EST
100
AcDbLine
 10
2984.802251952823
 20
2462.268653489538
 30
0.0
 11
2984.80225195282
 21
2432.268653489544
 31
0.0
  0
LINE
  5
9A8
330
1F
100
AcDbEntity
  8
MUR-EST
100
AcDbLine
 10
3024.802251952821
 20
2462.268653489538
 30
0.0
 11
2984.802251952823
 21
2462.268653489538
 31
0.0
  0
LINE
  5
9A9
330
1F
100
AcDbEntity
  8
MUR-EST
100
AcDbLine
 10
2984.80225195282
 20
2312.268653489538
 30
0.0
 11
3004.80225195282
 21
2312.268653489538
 31
0.0
  0
LINE
  5
9AA
330
1F
100
AcDbEntity
  8
MUR-EST
100
AcDbLine
 10
2984.80225195282
 20
2332.26865348954
 30
0.0
 11
3004.80225195282
 21
2332.268653489536
 31
0.0
  0
LINE
  5
9AB
330
1F
100
AcDbEntity
  8
ASSI-PIL
370
    15
100
AcDbLine
 10
2994.802251952819
 20
2292.26865348954
 30
0.0
 11
2994.802251952819
 21
2352.268653489536
 31
0.0
  0
LINE
  5
9AC
330
1F
100
AcDbEntity
  8
MUR-EST
100
AcDbLine
 10
3004.80225195282
 20
2332.268653489536
 30
0.0
 11
3004.80225195282
 21
2312.268653489538
 31
0.0
  0
LINE
  5
9AD
330
1F
100
AcDbEntity
  8
MUR-EST
100
AcDbLine
 10
2984.80225195282
 20
2332.268653489536
 30
0.0
 11
2984.80225195282
 21
2312.268653489538
 31
0.0
  0
LINE
  5
9AE
330
1F
100
AcDbEntity
  8
MUR-EST
100
AcDbLine
 10
2984.80225195282
 20
2312.268653489538
 30
0.0
 11
3004.80225195282
 21
2312.268653489538
 31
0.0
  0
LINE
  5
9AF
330
1F
100
AcDbEntity
  8
MUR-EST
100
AcDbLine
 10
2984.80225195282
 20
2192.26865348954
 30
0.0
 11
3004.80225195282
 21
2192.26865348954
 31
0.0
  0
LINE
  5
9B0
330
1F
100
AcDbEntity
  8
MUR-EST
100
AcDbLine
 10
2984.80225195282
 20
2212.268653489538
 30
0.0
 11
3004.80225195282
 21
2212.268653489538
 31
0.0
  0
LINE
  5
9B1
330
1F
100
AcDbEntity
  8
MUR-EST
100
AcDbLine
 10
2984.80225195282
 20
2212.268653489538
 30
0.0
 11
2984.80225195282
 21
2192.26865348954
 31
0.0
  0
LINE
  5
9B2
330
1F
100
AcDbEntity
  8
MUR-EST
100
AcDbLine
 10
3004.80225195282
 20
2212.268653489538
 30
0.0
 11
3004.80225195282
 21
2192.26865348954
 31
0.0
  0
LINE
  5
9B3
330
1F
100
AcDbEntity
  8
ASSI-PIL
370
    15
100
AcDbLine
 10
2994.802251952819
 20
2172.26865348954
 30
0.0
 11
2994.802251952819
 21
2232.268653489536
 31
0.0
  0
LINE
  5
9B4
330
1F
100
AcDbEntity
  8
MUR-EST
100
AcDbLine
 10
2984.80225195282
 20
2192.26865348954
 30
0.0
 11
3004.802251952821
 21
2192.26865348954
 31
0.0
  0
LINE
  5
9B5
330
1F
100
AcDbEntity
  8
SERR-EST
100
AcDbLine
 10
2984.80225195282
 20
2432.268653489544
 30
0.0
 11
2984.80225195282
 21
2332.26865348954
 31
0.0
  0
LINE
  5
9B6
330
1F
100
AcDbEntity
  8
SERR-EST
100
AcDbLine
 10
3004.802251952821
 20
2432.268653489544
 30
0.0
 11
3004.80225195282
 21
2332.268653489536
 31
0.0
  0
LINE
  5
9B7
330
1F
100
AcDbEntity
  8
ASSI-PIL
370
    15
100
AcDbLine
 10
2964.802251952821
 20
2322.268653489534
 30
0.0
 11
3024.802251952821
 21
2322.26865348954
 31
0.0
  0
LINE
  5
9B8
330
1F
100
AcDbEntity
  8
ASSI-PIL
370
    15
100
AcDbLine
 10
2964.802251952821
 20
2202.268653489536
 30
0.0
 11
3024.802251952821
 21
2202.268653489542
 31
0.0
  0
LINE
  5
9B9
330
1F
100
AcDbEntity
  8
SERR-EST
100
AcDbLine
 10
2984.80225195282
 20
1832.268653489543
 30
0.0
 11
2984.80225195282
 21
1732.268653489545
 31
0.0
  0
LINE
  5
9BA
330
1F
100
AcDbEntity
  8
SERR-EST
100
AcDbLine
 10
3004.80225195282
 20
1832.268653489543
 30
0.0
 11
3004.802251952821
 21
1732.268653489545
 31
0.0
  0
LINE
  5
9BB
330
1F
100
AcDbEntity
  8
MUR-EST
100
AcDbLine
 10
3004.80225195282
 20
1972.26865348954
 30
0.0
 11
3004.80225195282
 21
1952.268653489541
 31
0.0
  0
LINE
  5
9BC
330
1F
100
AcDbEntity
  8
ASSI-PIL
370
    15
100
AcDbLine
 10
2994.802251952819
 20
1932.268653489543
 30
0.0
 11
2994.802251952819
 21
1992.26865348954
 31
0.0
  0
LINE
  5
9BD
330
1F
100
AcDbEntity
  8
MUR-EST
100
AcDbLine
 10
2984.80225195282
 20
1972.26865348954
 30
0.0
 11
2984.80225195282
 21
1952.268653489541
 31
0.0
  0
LINE
  5
9BE
330
1F
100
AcDbEntity
  8
MUR-EST
100
AcDbLine
 10
2984.80225195282
 20
1972.26865348954
 30
0.0
 11
3004.80225195282
 21
1972.26865348954
 31
0.0
  0
LINE
  5
9BF
330
1F
100
AcDbEntity
  8
MUR-EST
100
AcDbLine
 10
2984.80225195282
 20
1952.268653489541
 30
0.0
 11
3004.80225195282
 21
1952.268653489541
 31
0.0
  0
LINE
  5
9C0
330
1F
100
AcDbEntity
  8
MUR-EST
100
AcDbLine
 10
2984.80225195282
 20
1972.26865348954
 30
0.0
 11
3004.802251952821
 21
1972.26865348954
 31
0.0
  0
LINE
  5
9C1
330
1F
100
AcDbEntity
  8
ASSI-PIL
370
    15
100
AcDbLine
 10
2964.802251952821
 20
1962.268653489538
 30
0.0
 11
3024.802251952821
 21
1962.268653489538
 31
0.0
  0
LINE
  5
9C2
330
1F
100
AcDbEntity
  8
MUR-EST
100
AcDbLine
 10
3014.802251952818
 20
1732.268653489545
 30
0.0
 11
3014.802251952818
 21
1702.268653489541
 31
0.0
  0
LINE
  5
9C3
330
1F
100
AcDbEntity
  8
MUR-EST
100
AcDbLine
 10
2984.802251952821
 20
1732.589660203311
 30
0.0
 11
2984.80225195282
 21
1702.268653489541
 31
0.0
  0
LINE
  5
9C4
330
1F
100
AcDbEntity
  8
ASSI-PIL
370
    15
100
AcDbLine
 10
2999.802251952822
 20
1687.268653489545
 30
0.0
 11
2999.802251952822
 21
1747.268653489545
 31
0.0
  0
LINE
  5
9C5
330
1F
100
AcDbEntity
  8
MUR-EST
100
AcDbLine
 10
2984.80225195282
 20
1852.268653489542
 30
0.0
 11
2984.80225195282
 21
1832.268653489543
 31
0.0
  0
LINE
  5
9C6
330
1F
100
AcDbEntity
  8
MUR-EST
100
AcDbLine
 10
3004.80225195282
 20
1852.268653489542
 30
0.0
 11
3004.80225195282
 21
1832.268653489543
 31
0.0
  0
LINE
  5
9C7
330
1F
100
AcDbEntity
  8
ASSI-PIL
370
    15
100
AcDbLine
 10
2994.802251952819
 20
1812.268653489545
 30
0.0
 11
2994.802251952819
 21
1872.26865348954
 31
0.0
  0
LINE
  5
9C8
330
1F
100
AcDbEntity
  8
MUR-EST
100
AcDbLine
 10
2984.80225195282
 20
1852.268653489542
 30
0.0
 11
3004.80225195282
 21
1852.268653489542
 31
0.0
  0
LINE
  5
9C9
330
1F
100
AcDbEntity
  8
MUR-EST
100
AcDbLine
 10
2984.80225195282
 20
1832.268653489543
 30
0.0
 11
3004.80225195282
 21
1832.268653489543
 31
0.0
  0
LINE
  5
9CA
330
1F
100
AcDbEntity
  8
MUR-EST
100
AcDbLine
 10
2984.80225195282
 20
1852.268653489542
 30
0.0
 11
3004.80225195282
 21
1852.268653489542
 31
0.0
  0
LINE
  5
9CB
330
1F
100
AcDbEntity
  8
MUR-EST
100
AcDbLine
 10
3014.802251952818
 20
1732.268653489545
 30
0.0
 11
3004.802251952821
 21
1732.268653489545
 31
0.0
  0
LINE
  5
9CC
330
1F
100
AcDbEntity
  8
MUR-EST
100
AcDbLine
 10
3014.802251952818
 20
1702.268653489541
 30
0.0
 11
2984.80225195282
 21
1702.268653489541
 31
0.0
  0
LINE
  5
9CD
330
1F
100
AcDbEntity
  8
MUR-EST
100
AcDbLine
 10
2984.80225195282
 20
1702.268653489541
 30
0.0
 11
3014.802251952818
 21
1702.268653489541
 31
0.0
  0
LINE
  5
9CE
330
1F
100
AcDbEntity
  8
MUR-EST
100
AcDbLine
 10
2984.80225195282
 20
1732.268653489545
 30
0.0
 11
3014.802251952818
 21
1732.268653489545
 31
0.0
  0
LINE
  5
9CF
330
1F
100
AcDbEntity
  8
ASSI-PIL
370
    15
100
AcDbLine
 10
2969.802251952819
 20
1717.268653489545
 30
0.0
 11
3029.80225195282
 21
1717.268653489545
 31
0.0
  0
LINE
  5
9D0
330
1F
100
AcDbEntity
  8
ASSI-PIL
370
    15
100
AcDbLine
 10
2964.802251952821
 20
1842.26865348954
 30
0.0
 11
3024.802251952821
 21
1842.26865348954
 31
0.0
  0
LINE
  5
9D1
330
1F
100
AcDbEntity
  8
TETTO
  6
DASHED
370
    15
100
AcDbLine
 10
4134.262760101071
 20
1732.268653489585
 30
0.0
 11
4134.262760101083
 21
532.268653489627
 31
0.0
  0
LINE
  5
9D2
330
1F
100
AcDbEntity
  8
MUR-EST
100
AcDbLine
 10
3704.802251952816
 20
2432.268653489544
 30
0.0
 11
2984.80225195282
 21
2432.268653489544
 31
0.0
  0
LINE
  5
9D3
330
1F
100
AcDbEntity
  8
MUR-EST
100
AcDbLine
 10
3004.80225195282
 20
2312.268653489543
 30
0.0
 11
3004.80225195282
 21
2212.268653489538
 31
0.0
  0
LINE
  5
9D4
330
1F
100
AcDbEntity
  8
MUR-EST
100
AcDbLine
 10
2984.80225195282
 20
2312.268653489543
 30
0.0
 11
2984.80225195282
 21
2212.268653489538
 31
0.0
  0
LINE
  5
9D5
330
1F
100
AcDbEntity
  8
SERR-EST
100
AcDbLine
 10
3004.80225195282
 20
1952.268653489541
 30
0.0
 11
3004.80225195282
 21
1852.268653489542
 31
0.0
  0
LINE
  5
9D6
330
1F
100
AcDbEntity
  8
SERR-EST
100
AcDbLine
 10
2984.80225195282
 20
1952.268653489541
 30
0.0
 11
2984.80225195282
 21
1852.268653489542
 31
0.0
  0
LINE
  5
9D7
330
1F
100
AcDbEntity
  8
SERR-EST
100
AcDbLine
 10
2994.802251952819
 20
2432.268653489544
 30
0.0
 11
2994.802251952819
 21
2332.268653489536
 31
0.0
  0
LINE
  5
9D8
330
1F
100
AcDbEntity
  8
SERR-EST
100
AcDbLine
 10
2994.802251952819
 20
1952.268653489541
 30
0.0
 11
2994.802251952819
 21
1852.268653489542
 31
0.0
  0
LINE
  5
9D9
330
1F
100
AcDbEntity
  8
SERR-EST
100
AcDbLine
 10
2994.802251952819
 20
1832.268653489543
 30
0.0
 11
2994.802251952819
 21
1732.268653489545
 31
0.0
  0
LINE
  5
9DA
330
1F
100
AcDbEntity
  8
SERR-EST
100
AcDbLine
 10
2999.802251952822
 20
2432.268653489544
 30
0.0
 11
2999.802251952822
 21
2332.268653489536
 31
0.0
  0
LINE
  5
9DB
330
1F
100
AcDbEntity
  8
SERR-EST
100
AcDbLine
 10
2999.802251952822
 20
1952.268653489541
 30
0.0
 11
2999.802251952822
 21
1852.268653489542
 31
0.0
  0
LINE
  5
9DC
330
1F
100
AcDbEntity
  8
SERR-EST
100
AcDbLine
 10
2999.802251952822
 20
1832.268653489543
 30
0.0
 11
2999.802251952822
 21
1732.268653489545
 31
0.0
  0
LINE
  5
9DD
330
1F
100
AcDbEntity
  8
TETTO
  6
DASHED
370
    15
100
AcDbLine
 10
4134.262760101071
 20
1732.268653489585
 30
0.0
 11
3014.802251952818
 21
1732.268653489556
 31
0.0
  0
LINE
  5
9DE
330
1F
100
AcDbEntity
  8
MUR-EST
100
AcDbLine
 10
2383.725923540847
 20
2192.26865348954
 30
0.0
 11
2383.725923540847
 21
1972.26865348954
 31
0.0
  0
LINE
  5
9DF
330
1F
100
AcDbEntity
  8
MUR-EST
100
AcDbLine
 10
2363.725923540846
 20
2192.26865348954
 30
0.0
 11
2363.725923540846
 21
1972.26865348954
 31
0.0
  0
LINE
  5
9E0
330
1F
100
AcDbEntity
  8
SERR-EST
100
AcDbLine
 10
2368.725923540846
 20
1952.268653489541
 30
0.0
 11
2368.725923540846
 21
1852.268653489542
 31
0.0
  0
LINE
  5
9E1
330
1F
100
AcDbEntity
  8
SERR-EST
100
AcDbLine
 10
2373.725923540847
 20
1952.268653489541
 30
0.0
 11
2373.725923540847
 21
1852.268653489542
 31
0.0
  0
LINE
  5
9E2
330
1F
100
AcDbEntity
  8
SERR-EST
100
AcDbLine
 10
2383.725923540847
 20
1952.268653489541
 30
0.0
 11
2383.725923540847
 21
1852.268653489542
 31
0.0
  0
LINE
  5
9E3
330
1F
100
AcDbEntity
  8
SERR-EST
100
AcDbLine
 10
2363.725923540846
 20
1952.268653489541
 30
0.0
 11
2363.725923540846
 21
1852.268653489542
 31
0.0
  0
LINE
  5
9E4
330
1F
100
AcDbEntity
  8
ASSI-PIL
370
    15
100
AcDbLine
 10
2403.725923540845
 20
1842.26865348954
 30
0.0
 11
2343.725923540846
 21
1842.26865348954
 31
0.0
  0
LINE
  5
9E5
330
1F
100
AcDbEntity
  8
ASSI-PIL
370
    15
100
AcDbLine
 10
2398.725923540847
 20
1717.268653489545
 30
0.0
 11
2338.725923540847
 21
1717.268653489545
 31
0.0
  0
LINE
  5
9E6
330
1F
100
AcDbEntity
  8
MUR-EST
100
AcDbLine
 10
2383.725923540847
 20
1732.268653489545
 30
0.0
 11
2353.725923540847
 21
1732.268653489545
 31
0.0
  0
LINE
  5
9E7
330
1F
100
AcDbEntity
  8
MUR-EST
100
AcDbLine
 10
2383.725923540847
 20
1702.268653489541
 30
0.0
 11
2353.725923540844
 21
1702.268653489541
 31
0.0
  0
LINE
  5
9E8
330
1F
100
AcDbEntity
  8
MUR-EST
100
AcDbLine
 10
2353.725923540847
 20
1702.268653489541
 30
0.0
 11
2383.725923540847
 21
1702.268653489541
 31
0.0
  0
LINE
  5
9E9
330
1F
100
AcDbEntity
  8
MUR-EST
100
AcDbLine
 10
2353.725923540847
 20
1732.268653489545
 30
0.0
 11
2363.725923540843
 21
1732.268653489545
 31
0.0
  0
LINE
  5
9EA
330
1F
100
AcDbEntity
  8
SERR-EST
100
AcDbLine
 10
2368.725923540846
 20
1832.268653489543
 30
0.0
 11
2368.725923540846
 21
1732.268653489545
 31
0.0
  0
LINE
  5
9EB
330
1F
100
AcDbEntity
  8
SERR-EST
100
AcDbLine
 10
2373.725923540847
 20
1832.268653489543
 30
0.0
 11
2373.725923540847
 21
1732.268653489545
 31
0.0
  0
LINE
  5
9EC
330
1F
100
AcDbEntity
  8
MUR-EST
100
AcDbLine
 10
2383.725923540847
 20
1852.268653489542
 30
0.0
 11
2363.725923540846
 21
1852.268653489542
 31
0.0
  0
LINE
  5
9ED
330
1F
100
AcDbEntity
  8
MUR-EST
100
AcDbLine
 10
2383.725923540847
 20
1832.268653489543
 30
0.0
 11
2363.725923540846
 21
1832.268653489543
 31
0.0
  0
LINE
  5
9EE
330
1F
100
AcDbEntity
  8
MUR-EST
100
AcDbLine
 10
2383.725923540847
 20
1852.268653489542
 30
0.0
 11
2363.725923540846
 21
1852.268653489542
 31
0.0
  0
LINE
  5
9EF
330
1F
100
AcDbEntity
  8
ASSI-PIL
370
    15
100
AcDbLine
 10
2373.725923540847
 20
1812.268653489545
 30
0.0
 11
2373.725923540847
 21
1872.26865348954
 31
0.0
  0
LINE
  5
9F0
330
1F
100
AcDbEntity
  8
MUR-EST
100
AcDbLine
 10
2363.725923540846
 20
1852.268653489542
 30
0.0
 11
2363.725923540846
 21
1832.268653489543
 31
0.0
  0
LINE
  5
9F1
330
1F
100
AcDbEntity
  8
MUR-EST
100
AcDbLine
 10
2383.725923540847
 20
1852.268653489542
 30
0.0
 11
2383.725923540847
 21
1832.268653489543
 31
0.0
  0
LINE
  5
9F2
330
1F
100
AcDbEntity
  8
ASSI-PIL
370
    15
100
AcDbLine
 10
2368.725923540846
 20
1687.268653489545
 30
0.0
 11
2368.725923540846
 21
1747.268653489545
 31
0.0
  0
LINE
  5
9F3
330
1F
100
AcDbEntity
  8
MUR-EST
100
AcDbLine
 10
2383.725923540847
 20
1732.589660203311
 30
0.0
 11
2383.725923540847
 21
1702.268653489541
 31
0.0
  0
LINE
  5
9F4
330
1F
100
AcDbEntity
  8
SERR-EST
100
AcDbLine
 10
2363.725923540846
 20
1832.268653489543
 30
0.0
 11
2363.725923540843
 21
1732.268653489545
 31
0.0
  0
LINE
  5
9F5
330
1F
100
AcDbEntity
  8
SERR-EST
100
AcDbLine
 10
2383.725923540847
 20
1832.268653489543
 30
0.0
 11
2383.725923540847
 21
1732.268653489545
 31
0.0
  0
LINE
  5
9F6
330
1F
100
AcDbEntity
  8
MUR-EST
100
AcDbLine
 10
2353.725923540847
 20
1732.268653489545
 30
0.0
 11
2353.725923540844
 21
1702.268653489541
 31
0.0
  0
LINE
  5
9F7
330
1F
100
AcDbEntity
  8
ASSI-PIL
370
    15
100
AcDbLine
 10
2403.725923540845
 20
1962.268653489538
 30
0.0
 11
2343.725923540846
 21
1962.268653489538
 31
0.0
  0
LINE
  5
9F8
330
1F
100
AcDbEntity
  8
MUR-EST
100
AcDbLine
 10
2383.725923540847
 20
1972.26865348954
 30
0.0
 11
2363.725923540843
 21
1972.26865348954
 31
0.0
  0
LINE
  5
9F9
330
1F
100
AcDbEntity
  8
MUR-EST
100
AcDbLine
 10
2383.725923540847
 20
1952.268653489541
 30
0.0
 11
2363.725923540846
 21
1952.268653489541
 31
0.0
  0
LINE
  5
9FA
330
1F
100
AcDbEntity
  8
MUR-EST
100
AcDbLine
 10
2383.725923540847
 20
1972.26865348954
 30
0.0
 11
2363.725923540846
 21
1972.26865348954
 31
0.0
  0
LINE
  5
9FB
330
1F
100
AcDbEntity
  8
MUR-EST
100
AcDbLine
 10
2383.725923540847
 20
1972.26865348954
 30
0.0
 11
2383.725923540847
 21
1952.268653489541
 31
0.0
  0
LINE
  5
9FC
330
1F
100
AcDbEntity
  8
ASSI-PIL
370
    15
100
AcDbLine
 10
2373.725923540847
 20
1932.268653489543
 30
0.0
 11
2373.725923540847
 21
1992.26865348954
 31
0.0
  0
LINE
  5
9FD
330
1F
100
AcDbEntity
  8
MUR-EST
100
AcDbLine
 10
2363.725923540846
 20
1972.26865348954
 30
0.0
 11
2363.725923540846
 21
1952.268653489541
 31
0.0
  0
LINE
  5
9FE
330
1F
100
AcDbEntity
  8
MUR-EST
100
AcDbLine
 10
2383.725923540847
 20
2312.268653489543
 30
0.0
 11
2383.725923540847
 21
2212.268653489538
 31
0.0
  0
LINE
  5
9FF
330
1F
100
AcDbEntity
  8
MUR-EST
100
AcDbLine
 10
2363.725923540846
 20
2312.268653489543
 30
0.0
 11
2363.725923540846
 21
2212.268653489538
 31
0.0
  0
LINE
  5
A00
330
1F
100
AcDbEntity
  8
ASSI-PIL
370
    15
100
AcDbLine
 10
2373.725923540847
 20
2292.26865348954
 30
0.0
 11
2373.725923540847
 21
2352.268653489536
 31
0.0
  0
LINE
  5
A01
330
1F
100
AcDbEntity
  8
ASSI-PIL
370
    15
100
AcDbLine
 10
2403.725923540845
 20
2202.268653489536
 30
0.0
 11
2343.725923540846
 21
2202.268653489542
 31
0.0
  0
LINE
  5
A02
330
1F
100
AcDbEntity
  8
MUR-EST
100
AcDbLine
 10
2383.725923540847
 20
2192.26865348954
 30
0.0
 11
2363.725923540843
 21
2192.26865348954
 31
0.0
  0
LINE
  5
A03
330
1F
100
AcDbEntity
  8
ASSI-PIL
370
    15
100
AcDbLine
 10
2373.725923540847
 20
2172.26865348954
 30
0.0
 11
2373.725923540847
 21
2232.268653489536
 31
0.0
  0
LINE
  5
A04
330
1F
100
AcDbEntity
  8
MUR-EST
100
AcDbLine
 10
2363.725923540846
 20
2212.268653489538
 30
0.0
 11
2363.725923540846
 21
2192.26865348954
 31
0.0
  0
LINE
  5
A05
330
1F
100
AcDbEntity
  8
MUR-EST
100
AcDbLine
 10
2383.725923540847
 20
2212.268653489538
 30
0.0
 11
2383.725923540847
 21
2192.26865348954
 31
0.0
  0
LINE
  5
A06
330
1F
100
AcDbEntity
  8
MUR-EST
100
AcDbLine
 10
2383.725923540847
 20
2212.268653489538
 30
0.0
 11
2363.725923540846
 21
2212.268653489538
 31
0.0
  0
LINE
  5
A07
330
1F
100
AcDbEntity
  8
MUR-EST
100
AcDbLine
 10
2383.725923540847
 20
2192.26865348954
 30
0.0
 11
2363.725923540846
 21
2192.26865348954
 31
0.0
  0
LINE
  5
A08
330
1F
100
AcDbEntity
  8
ASSI-PIL
370
    15
100
AcDbLine
 10
2403.725923540845
 20
2322.268653489534
 30
0.0
 11
2343.725923540846
 21
2322.26865348954
 31
0.0
  0
LINE
  5
A09
330
1F
100
AcDbEntity
  8
SERR-EST
100
AcDbLine
 10
2368.725923540846
 20
2432.268653489544
 30
0.0
 11
2368.725923540846
 21
2332.268653489536
 31
0.0
  0
LINE
  5
A0A
330
1F
100
AcDbEntity
  8
SERR-EST
100
AcDbLine
 10
2373.725923540847
 20
2432.268653489544
 30
0.0
 11
2373.725923540847
 21
2332.268653489536
 31
0.0
  0
LINE
  5
A0B
330
1F
100
AcDbEntity
  8
SERR-EST
100
AcDbLine
 10
2363.725923540843
 20
2432.268653489544
 30
0.0
 11
2363.725923540846
 21
2332.268653489536
 31
0.0
  0
LINE
  5
A0C
330
1F
100
AcDbEntity
  8
SERR-EST
100
AcDbLine
 10
2383.725923540847
 20
2432.268653489544
 30
0.0
 11
2383.725923540847
 21
2332.26865348954
 31
0.0
  0
LINE
  5
A0D
330
1F
100
AcDbEntity
  8
MUR-EST
100
AcDbLine
 10
2383.725923540847
 20
2312.268653489538
 30
0.0
 11
2363.725923540846
 21
2312.268653489538
 31
0.0
  0
LINE
  5
A0E
330
1F
100
AcDbEntity
  8
MUR-EST
100
AcDbLine
 10
2383.725923540847
 20
2332.268653489536
 30
0.0
 11
2383.725923540847
 21
2312.268653489538
 31
0.0
  0
LINE
  5
A0F
330
1F
100
AcDbEntity
  8
MUR-EST
100
AcDbLine
 10
2363.725923540846
 20
2332.268653489536
 30
0.0
 11
2363.725923540846
 21
2312.268653489538
 31
0.0
  0
LINE
  5
A10
330
1F
100
AcDbEntity
  8
MUR-EST
100
AcDbLine
 10
2383.725923540847
 20
2332.26865348954
 30
0.0
 11
2363.725923540846
 21
2332.268653489536
 31
0.0
  0
LINE
  5
A11
330
1F
100
AcDbEntity
  8
MUR-EST
100
AcDbLine
 10
2383.725923540847
 20
2312.268653489538
 30
0.0
 11
2363.725923540846
 21
2312.268653489538
 31
0.0
  0
LINE
  5
A12
330
1F
100
AcDbEntity
  8
SERR-INT
100
AcDbLine
 10
2393.866969262246
 20
2532.2686534895
 30
0.0
 11
2393.866969262246
 21
2352.26865348954
 31
0.0
  0
LINE
  5
A13
330
1F
100
AcDbEntity
  8
SERR-INT
100
AcDbLine
 10
2978.539979713324
 20
2532.268653489591
 30
0.0
 11
2978.539979713324
 21
2352.26865348954
 31
0.0
  0
LINE
  5
A14
330
1F
100
AcDbEntity
  8
SERR-INT
100
AcDbLine
 10
2573.866969262249
 20
2532.268653489565
 30
0.0
 11
2573.866969262249
 21
2352.26865348954
 31
0.0
  0
LINE
  5
A15
330
1F
100
AcDbEntity
  8
SERR-INT
100
AcDbLine
 10
2798.539979713321
 20
2532.26865348944
 30
0.0
 11
2798.539979713321
 21
2352.26865348954
 31
0.0
  0
LINE
  5
A16
330
1F
100
AcDbEntity
  8
SERR-INT
100
AcDbLine
 10
2798.539979713321
 20
2442.26865348954
 30
0.0
 11
2573.866969262249
 21
2442.26865348954
 31
0.0
  0
LINE
  5
A17
330
1F
100
AcDbEntity
  8
SERR-INT
100
AcDbLine
 10
2798.539979713321
 20
2447.26865348954
 30
0.0
 11
2573.866969262249
 21
2447.26865348954
 31
0.0
  0
ARC
  5
A18
330
1F
100
AcDbEntity
  8
SERR-INT
100
AcDbCircle
 10
2393.866969262246
 20
2442.26865348954
 30
0.0
 40
90.0
100
AcDbArc
 50
270.0
 51
90.0
  0
ARC
  5
A19
330
1F
100
AcDbEntity
  8
SERR-INT
100
AcDbCircle
 10
2798.539979713321
 20
2442.26865348954
 30
0.0
 40
90.0
100
AcDbArc
 50
270.0
 51
90.0
  0
ARC
  5
A1A
330
1F
100
AcDbEntity
  8
SERR-INT
100
AcDbCircle
 10
2978.539979713324
 20
2442.26865348954
 30
0.0
 40
90.0
100
AcDbArc
 50
90.0
 51
270.0
  0
ARC
  5
A1B
330
1F
100
AcDbEntity
  8
SERR-INT
100
AcDbCircle
 10
2573.866969262249
 20
2442.26865348954
 30
0.0
 40
90.0
100
AcDbArc
 50
90.0
 51
270.0
  0
LINE
  5
A1C
330
1F
100
AcDbEntity
  8
SERR-EST
100
AcDbLine
 10
1668.725923540846
 20
6062.268653489548
 30
0.0
 11
1668.725923540846
 21
5772.268653489546
 31
0.0
  0
LINE
  5
A1D
330
1F
100
AcDbEntity
  8
SERR-EST
100
AcDbLine
 10
1698.725923540846
 20
6062.268653489548
 30
0.0
 11
1698.725923540846
 21
5772.268653489546
 31
0.0
  0
LINE
  5
A1E
330
1F
100
AcDbEntity
  8
SERR-EST
100
AcDbLine
 10
1673.725923540846
 20
6062.268653489548
 30
0.0
 11
1673.72592354085
 21
5772.268653489546
 31
0.0
  0
LINE
  5
A1F
330
1F
100
AcDbEntity
  8
SERR-EST
100
AcDbLine
 10
1678.725923540848
 20
6062.268653489548
 30
0.0
 11
1678.72592354085
 21
5772.268653489546
 31
0.0
  0
LINE
  5
A20
330
1F
100
AcDbEntity
  8
MUR-EST
100
AcDbLine
 10
1668.725923540846
 20
2432.268653489544
 30
0.0
 11
1668.725923540846
 21
2462.268653489538
 31
0.0
  0
LINE
  5
A21
330
1F
100
AcDbEntity
  8
MUR-EST
100
AcDbLine
 10
3704.80225195282
 20
2462.268653489538
 30
0.0
 11
3704.802251952816
 21
2432.268653489544
 31
0.0
  0
LINE
  5
A22
330
1F
100
AcDbEntity
  8
MUR-EST
100
AcDbLine
 10
2348.725923540847
 20
6062.268653489548
 30
0.0
 11
2348.725923540847
 21
5902.268653489548
 31
0.0
  0
LINE
  5
A23
330
1F
100
AcDbEntity
  8
MUR-EST
100
AcDbLine
 10
1668.725923540842
 20
3162.26865348954
 30
0.0
 11
2328.725923540847
 21
3162.26865348954
 31
0.0
  0
LINE
  5
A24
330
1F
100
AcDbEntity
  8
MUR-EST
100
AcDbLine
 10
1668.725923540842
 20
3182.268653489539
 30
0.0
 11
2328.725923540847
 21
3182.268653489539
 31
0.0
  0
LINE
  5
A25
330
1F
100
AcDbEntity
  8
MUR-EST
100
AcDbLine
 10
1668.725923540846
 20
3902.268653489539
 30
0.0
 11
2328.725923540847
 21
3902.268653489539
 31
0.0
  0
LINE
  5
A26
330
1F
100
AcDbEntity
  8
MUR-EST
100
AcDbLine
 10
1668.725923540846
 20
3922.268653489538
 30
0.0
 11
2328.725923540847
 21
3922.268653489538
 31
0.0
  0
LINE
  5
A27
330
1F
100
AcDbEntity
  8
MUR-EST
100
AcDbLine
 10
1668.725923540846
 20
4622.268653489538
 30
0.0
 11
2328.725923540847
 21
4622.268653489538
 31
0.0
  0
LINE
  5
A28
330
1F
100
AcDbEntity
  8
MUR-EST
100
AcDbLine
 10
1668.725923540846
 20
4642.268653489538
 30
0.0
 11
2328.725923540847
 21
4642.268653489538
 31
0.0
  0
LINE
  5
A29
330
1F
100
AcDbEntity
  8
MUR-EST
100
AcDbLine
 10
1668.725923540846
 20
5362.268653489548
 30
0.0
 11
2328.725923540847
 21
5362.268653489548
 31
0.0
  0
LINE
  5
A2A
330
1F
100
AcDbEntity
  8
MUR-EST
100
AcDbLine
 10
1668.725923540846
 20
5382.268653489547
 30
0.0
 11
2328.725923540847
 21
5382.268653489547
 31
0.0
  0
LINE
  5
A2B
330
1F
100
AcDbEntity
  8
MUR-EST
100
AcDbLine
 10
1668.725923540846
 20
5752.268653489545
 30
0.0
 11
1753.517607157148
 21
5752.268653489545
 31
0.0
  0
LINE
  5
A2C
330
1F
100
AcDbEntity
  8
MUR-EST
100
AcDbLine
 10
1668.725923540846
 20
6092.268653489547
 30
0.0
 11
2246.066103189646
 21
6092.268653489547
 31
0.0
  0
LINE
  5
A2D
330
1F
100
AcDbEntity
  8
MUR-EST
100
AcDbLine
 10
2328.725923540847
 20
3012.268653489539
 30
0.0
 11
2348.725923540847
 21
3012.268653489539
 31
0.0
  0
LINE
  5
A2E
330
1F
100
AcDbEntity
  8
MUR-EST
100
AcDbLine
 10
2328.725923540847
 20
2932.268653489538
 30
0.0
 11
2348.725923540847
 21
2932.268653489538
 31
0.0
  0
LINE
  5
A2F
330
1F
100
AcDbEntity
  8
MUR-EST
100
AcDbLine
 10
2328.725923540847
 20
2932.268653489538
 30
0.0
 11
2328.725923540847
 21
2462.268653489538
 31
0.0
  0
LINE
  5
A30
330
1F
100
AcDbEntity
  8
MUR-EST
100
AcDbLine
 10
2348.725923540843
 20
2932.268653489538
 30
0.0
 11
2348.725923540847
 21
2462.268653489538
 31
0.0
  0
LINE
  5
A31
330
1F
100
AcDbEntity
  8
SERR-INT
100
AcDbLine
 10
2338.725923540847
 20
3012.268653489539
 30
0.0
 11
2338.725923540847
 21
2932.268653489538
 31
0.0
  0
LINE
  5
A32
330
1F
100
AcDbEntity
  8
SERR-EST
100
AcDbLine
 10
1698.725923540844
 20
3162.26865348954
 30
0.0
 11
1698.725923540846
 21
2462.268653489538
 31
0.0
  0
LINE
  5
A33
330
1F
100
AcDbEntity
  8
SERR-EST
100
AcDbLine
 10
1678.725923540846
 20
3162.26865348954
 30
0.0
 11
1678.725923540848
 21
2462.268653489538
 31
0.0
  0
LINE
  5
A34
330
1F
100
AcDbEntity
  8
SERR-EST
100
AcDbLine
 10
1673.725923540844
 20
3162.26865348954
 30
0.0
 11
1673.725923540846
 21
2462.268653489538
 31
0.0
  0
LINE
  5
A35
330
1F
100
AcDbEntity
  8
SERR-EST
100
AcDbLine
 10
1668.725923540842
 20
3162.26865348954
 30
0.0
 11
1668.725923540846
 21
2462.268653489538
 31
0.0
  0
LINE
  5
A36
330
1F
100
AcDbEntity
  8
MUR-EST
100
AcDbLine
 10
1668.725923540842
 20
3182.268653489539
 30
0.0
 11
1668.725923540842
 21
3162.26865348954
 31
0.0
  0
LINE
  5
A37
330
1F
100
AcDbEntity
  8
SERR-EST
100
AcDbLine
 10
1698.725923540846
 20
3902.268653489539
 30
0.0
 11
1698.725923540844
 21
3182.268653489539
 31
0.0
  0
LINE
  5
A38
330
1F
100
AcDbEntity
  8
SERR-EST
100
AcDbLine
 10
1678.725923540848
 20
3902.268653489539
 30
0.0
 11
1678.725923540846
 21
3182.268653489539
 31
0.0
  0
LINE
  5
A39
330
1F
100
AcDbEntity
  8
SERR-EST
100
AcDbLine
 10
1673.725923540846
 20
3902.268653489539
 30
0.0
 11
1673.725923540844
 21
3182.268653489539
 31
0.0
  0
LINE
  5
A3A
330
1F
100
AcDbEntity
  8
SERR-EST
100
AcDbLine
 10
1668.725923540846
 20
3902.268653489539
 30
0.0
 11
1668.725923540842
 21
3182.268653489539
 31
0.0
  0
LINE
  5
A3B
330
1F
100
AcDbEntity
  8
MUR-EST
100
AcDbLine
 10
1668.725923540846
 20
3922.268653489538
 30
0.0
 11
1668.725923540846
 21
3902.268653489539
 31
0.0
  0
LINE
  5
A3C
330
1F
100
AcDbEntity
  8
SERR-INT
100
AcDbLine
 10
2338.725923540847
 20
3822.268653489538
 30
0.0
 11
2338.725923540847
 21
3742.268653489539
 31
0.0
  0
LINE
  5
A3D
330
1F
100
AcDbEntity
  8
MUR-EST
100
AcDbLine
 10
2328.725923540847
 20
3742.268653489539
 30
0.0
 11
2348.725923540847
 21
3742.268653489539
 31
0.0
  0
LINE
  5
A3E
330
1F
100
AcDbEntity
  8
MUR-EST
100
AcDbLine
 10
2328.725923540847
 20
3822.268653489538
 30
0.0
 11
2348.725923540847
 21
3822.268653489538
 31
0.0
  0
LINE
  5
A3F
330
1F
100
AcDbEntity
  8
MUR-EST
100
AcDbLine
 10
2328.725923540847
 20
3742.268653489539
 30
0.0
 11
2328.725923540847
 21
3182.268653489539
 31
0.0
  0
LINE
  5
A40
330
1F
100
AcDbEntity
  8
MUR-EST
100
AcDbLine
 10
2348.725923540843
 20
3742.268653489539
 30
0.0
 11
2348.725923540843
 21
3012.268653489539
 31
0.0
  0
LINE
  5
A41
330
1F
100
AcDbEntity
  8
MUR-EST
100
AcDbLine
 10
2328.725923540845
 20
3902.268653489539
 30
0.0
 11
2328.725923540847
 21
3822.268653489538
 31
0.0
  0
LINE
  5
A42
330
1F
100
AcDbEntity
  8
MUR-EST
100
AcDbLine
 10
2328.725923540847
 20
3162.26865348954
 30
0.0
 11
2328.725923540847
 21
3012.268653489539
 31
0.0
  0
LINE
  5
A43
330
1F
100
AcDbEntity
  8
SERR-EST
100
AcDbLine
 10
1698.725923540846
 20
4622.268653489538
 30
0.0
 11
1698.725923540846
 21
3922.268653489538
 31
0.0
  0
LINE
  5
A44
330
1F
100
AcDbEntity
  8
SERR-EST
100
AcDbLine
 10
1678.72592354085
 20
4622.268653489538
 30
0.0
 11
1678.725923540848
 21
3922.268653489538
 31
0.0
  0
LINE
  5
A45
330
1F
100
AcDbEntity
  8
SERR-EST
100
AcDbLine
 10
1673.72592354085
 20
4622.268653489538
 30
0.0
 11
1673.725923540846
 21
3922.268653489538
 31
0.0
  0
LINE
  5
A46
330
1F
100
AcDbEntity
  8
SERR-EST
100
AcDbLine
 10
1668.725923540846
 20
4622.268653489538
 30
0.0
 11
1668.725923540846
 21
3922.268653489538
 31
0.0
  0
LINE
  5
A47
330
1F
100
AcDbEntity
  8
MUR-EST
100
AcDbLine
 10
1668.725923540846
 20
4642.268653489538
 30
0.0
 11
1668.725923540846
 21
4622.268653489538
 31
0.0
  0
LINE
  5
A48
330
1F
100
AcDbEntity
  8
MUR-EST
100
AcDbLine
 10
2328.725923540847
 20
4482.268653489538
 30
0.0
 11
2348.725923540847
 21
4482.268653489538
 31
0.0
  0
LINE
  5
A49
330
1F
100
AcDbEntity
  8
MUR-EST
100
AcDbLine
 10
2328.725923540847
 20
4402.268653489538
 30
0.0
 11
2348.725923540847
 21
4402.268653489538
 31
0.0
  0
LINE
  5
A4A
330
1F
100
AcDbEntity
  8
SERR-INT
100
AcDbLine
 10
2338.725923540847
 20
4482.268653489538
 30
0.0
 11
2338.725923540847
 21
4402.268653489538
 31
0.0
  0
LINE
  5
A4B
330
1F
100
AcDbEntity
  8
MUR-EST
100
AcDbLine
 10
2328.725923540847
 20
4402.268653489538
 30
0.0
 11
2328.725923540845
 21
3922.268653489538
 31
0.0
  0
LINE
  5
A4C
330
1F
100
AcDbEntity
  8
MUR-EST
100
AcDbLine
 10
2348.725923540847
 20
4402.268653489538
 30
0.0
 11
2348.725923540847
 21
3822.268653489538
 31
0.0
  0
LINE
  5
A4D
330
1F
100
AcDbEntity
  8
MUR-EST
100
AcDbLine
 10
2328.725923540847
 20
4622.268653489538
 30
0.0
 11
2328.725923540847
 21
4482.268653489538
 31
0.0
  0
LINE
  5
A4E
330
1F
100
AcDbEntity
  8
SERR-EST
100
AcDbLine
 10
1698.725923540846
 20
5362.268653489548
 30
0.0
 11
1698.725923540846
 21
4642.268653489538
 31
0.0
  0
LINE
  5
A4F
330
1F
100
AcDbEntity
  8
SERR-EST
100
AcDbLine
 10
1678.72592354085
 20
5362.268653489548
 30
0.0
 11
1678.72592354085
 21
4642.268653489538
 31
0.0
  0
LINE
  5
A50
330
1F
100
AcDbEntity
  8
SERR-EST
100
AcDbLine
 10
1673.72592354085
 20
5362.268653489548
 30
0.0
 11
1673.72592354085
 21
4642.268653489538
 31
0.0
  0
LINE
  5
A51
330
1F
100
AcDbEntity
  8
SERR-EST
100
AcDbLine
 10
1668.725923540846
 20
5362.268653489548
 30
0.0
 11
1668.725923540846
 21
4642.268653489538
 31
0.0
  0
LINE
  5
A52
330
1F
100
AcDbEntity
  8
MUR-EST
100
AcDbLine
 10
1668.725923540846
 20
5382.268653489547
 30
0.0
 11
1668.725923540846
 21
5362.268653489548
 31
0.0
  0
LINE
  5
A53
330
1F
100
AcDbEntity
  8
SERR-INT
100
AcDbLine
 10
2338.725923540847
 20
4992.268653489539
 30
0.0
 11
2338.725923540847
 21
4912.268653489539
 31
0.0
  0
LINE
  5
A54
330
1F
100
AcDbEntity
  8
MUR-EST
100
AcDbLine
 10
2328.725923540847
 20
4912.268653489539
 30
0.0
 11
2348.725923540847
 21
4912.268653489539
 31
0.0
  0
LINE
  5
A55
330
1F
100
AcDbEntity
  8
MUR-EST
100
AcDbLine
 10
2328.725923540847
 20
4992.268653489539
 30
0.0
 11
2348.725923540847
 21
4992.268653489539
 31
0.0
  0
LINE
  5
A56
330
1F
100
AcDbEntity
  8
MUR-EST
100
AcDbLine
 10
2328.725923540857
 20
5362.268653489548
 30
0.0
 11
2328.725923540854
 21
4992.268653489539
 31
0.0
  0
LINE
  5
A57
330
1F
100
AcDbEntity
  8
MUR-EST
100
AcDbLine
 10
2328.725923540854
 20
4912.268653489539
 30
0.0
 11
2328.725923540847
 21
4642.268653489538
 31
0.0
  0
LINE
  5
A58
330
1F
100
AcDbEntity
  8
MUR-EST
100
AcDbLine
 10
2348.725923540847
 20
4912.268653489539
 30
0.0
 11
2348.725923540847
 21
4482.268653489538
 31
0.0
  0
LINE
  5
A59
330
1F
100
AcDbEntity
  8
MUR-EST
100
AcDbLine
 10
1668.725923540846
 20
6092.268653489547
 30
0.0
 11
1668.725923540846
 21
6062.268653489548
 31
0.0
  0
LINE
  5
A5A
330
1F
100
AcDbEntity
  8
SERR-EST
100
AcDbLine
 10
1698.725923540846
 20
5752.268653489545
 30
0.0
 11
1698.725923540846
 21
5382.268653489547
 31
0.0
  0
LINE
  5
A5B
330
1F
100
AcDbEntity
  8
SERR-EST
100
AcDbLine
 10
1678.72592354085
 20
5752.268653489545
 30
0.0
 11
1678.72592354085
 21
5382.268653489547
 31
0.0
  0
LINE
  5
A5C
330
1F
100
AcDbEntity
  8
SERR-EST
100
AcDbLine
 10
1673.72592354085
 20
5752.268653489545
 30
0.0
 11
1673.72592354085
 21
5382.268653489547
 31
0.0
  0
LINE
  5
A5D
330
1F
100
AcDbEntity
  8
SERR-EST
100
AcDbLine
 10
1668.725923540846
 20
5752.268653489545
 30
0.0
 11
1668.725923540846
 21
5382.268653489547
 31
0.0
  0
LINE
  5
A5E
330
1F
100
AcDbEntity
  8
MUR-EST
100
AcDbLine
 10
1668.725923540846
 20
5772.270470309784
 30
0.0
 11
1668.725923540846
 21
5752.270470309785
 31
0.0
  0
LINE
  5
A5F
330
1F
100
AcDbEntity
  8
MUR-EST
100
AcDbLine
 10
1753.517607157148
 20
5772.268653489546
 30
0.0
 11
1753.517607157148
 21
5752.268653489545
 31
0.0
  0
LINE
  5
A60
330
1F
100
AcDbEntity
  8
MUR-EST
100
AcDbLine
 10
1833.517607157148
 20
5772.268653489546
 30
0.0
 11
1833.517607157148
 21
5752.268653489545
 31
0.0
  0
LINE
  5
A61
330
1F
100
AcDbEntity
  8
MUR-EST
100
AcDbLine
 10
1833.517607157148
 20
5752.268653489545
 30
0.0
 11
2128.725923540859
 21
5752.268653489545
 31
0.0
  0
LINE
  5
A62
330
1F
100
AcDbEntity
  8
MUR-EST
100
AcDbLine
 10
2328.725923540857
 20
5457.268653489546
 30
0.0
 11
2348.725923540847
 21
5457.268653489546
 31
0.0
  0
LINE
  5
A63
330
1F
100
AcDbEntity
  8
MUR-EST
100
AcDbLine
 10
2328.725923540857
 20
5537.268653489546
 30
0.0
 11
2348.725923540847
 21
5537.268653489546
 31
0.0
  0
LINE
  5
A64
330
1F
100
AcDbEntity
  8
MUR-EST
100
AcDbLine
 10
2138.725923540856
 20
5597.268653489546
 30
0.0
 11
2328.725923540847
 21
5597.268653489546
 31
0.0
  0
LINE
  5
A65
330
1F
100
AcDbEntity
  8
MUR-EST
100
AcDbLine
 10
2138.725923540857
 20
5752.268653489545
 30
0.0
 11
2138.725923540856
 21
5597.268653489546
 31
0.0
  0
LINE
  5
A66
330
1F
100
AcDbEntity
  8
MUR-EST
100
AcDbLine
 10
2138.725923540857
 20
5752.268653489545
 30
0.0
 11
2328.725923540847
 21
5752.268653489545
 31
0.0
  0
LINE
  5
A67
330
1F
100
AcDbEntity
  8
MUR-EST
100
AcDbLine
 10
2328.725923540859
 20
5752.268653489545
 30
0.0
 11
2328.725923540859
 21
5727.268653489545
 31
0.0
  0
LINE
  5
A68
330
1F
100
AcDbEntity
  8
MUR-EST
100
AcDbLine
 10
2328.725923540857
 20
5587.268653489545
 30
0.0
 11
2328.725923540857
 21
5537.268653489546
 31
0.0
  0
LINE
  5
A69
330
1F
100
AcDbEntity
  8
MUR-EST
100
AcDbLine
 10
2328.725923540857
 20
5457.268653489546
 30
0.0
 11
2328.725923540857
 21
5382.268653489547
 31
0.0
  0
LINE
  5
A6A
330
1F
100
AcDbEntity
  8
MUR-EST
100
AcDbLine
 10
2348.725923540847
 20
5457.268653489546
 30
0.0
 11
2348.725923540847
 21
4992.26865348954
 31
0.0
  0
LINE
  5
A6B
330
1F
100
AcDbEntity
  8
MUR-EST
100
AcDbLine
 10
2328.725923540857
 20
5647.268653489546
 30
0.0
 11
2348.725923540847
 21
5647.268653489546
 31
0.0
  0
LINE
  5
A6C
330
1F
100
AcDbEntity
  8
MUR-EST
100
AcDbLine
 10
2328.725923540859
 20
5727.268653489545
 30
0.0
 11
2348.725923540847
 21
5727.268653489545
 31
0.0
  0
LINE
  5
A6D
330
1F
100
AcDbEntity
  8
MUR-EST
100
AcDbLine
 10
2328.725923540857
 20
5647.268653489546
 30
0.0
 11
2328.725923540857
 21
5597.268653489546
 31
0.0
  0
LINE
  5
A6E
330
1F
100
AcDbEntity
  8
MUR-EST
100
AcDbLine
 10
2348.725923540847
 20
5647.268653489546
 30
0.0
 11
2348.725923540847
 21
5537.268653489546
 31
0.0
  0
LINE
  5
A6F
330
1F
100
AcDbEntity
  8
SERR-INT
100
AcDbLine
 10
2338.725923540847
 20
5727.268653489545
 30
0.0
 11
2338.72592354085
 21
5647.268653489546
 31
0.0
  0
LINE
  5
A70
330
1F
100
AcDbEntity
  8
SERR-INT
100
AcDbLine
 10
2338.72592354085
 20
5537.268653489546
 30
0.0
 11
2338.725923540847
 21
5457.268653489546
 31
0.0
  0
LINE
  5
A71
330
1F
100
AcDbEntity
  8
MUR-EST
100
AcDbLine
 10
2128.725923540859
 20
5752.268653489545
 30
0.0
 11
2128.725923540857
 21
5587.268653489545
 31
0.0
  0
LINE
  5
A72
330
1F
100
AcDbEntity
  8
MUR-EST
100
AcDbLine
 10
2128.725923540857
 20
5587.268653489545
 30
0.0
 11
2328.725923540857
 21
5587.268653489545
 31
0.0
  0
LINE
  5
A73
330
1F
100
AcDbEntity
  8
MUR-EST
100
AcDbLine
 10
2328.725923540861
 20
5822.268653489546
 30
0.0
 11
2348.725923540847
 21
5822.268653489546
 31
0.0
  0
LINE
  5
A74
330
1F
100
AcDbEntity
  8
MUR-EST
100
AcDbLine
 10
2328.725923540861
 20
5902.268653489548
 30
0.0
 11
2348.725923540847
 21
5902.268653489548
 31
0.0
  0
LINE
  5
A75
330
1F
100
AcDbEntity
  8
MUR-EST
100
AcDbLine
 10
2348.725923540847
 20
5822.268653489546
 30
0.0
 11
2348.725923540847
 21
5727.268653489545
 31
0.0
  0
LINE
  5
A76
330
1F
100
AcDbEntity
  8
MUR-EST
100
AcDbLine
 10
2306.066103189646
 20
6092.268653489547
 30
0.0
 11
2568.725923540852
 21
6092.268653489547
 31
0.0
  0
LINE
  5
A77
330
1F
100
AcDbEntity
  8
MUR-EST
100
AcDbLine
 10
2348.725923540847
 20
6062.268653489548
 30
0.0
 11
2568.725923540854
 21
6062.268653489542
 31
0.0
  0
LINE
  5
A78
330
1F
100
AcDbEntity
  8
SERR-EST
100
AcDbLine
 10
3704.802251952818
 20
3162.26865348954
 30
0.0
 11
3704.80225195282
 21
2462.268653489538
 31
0.0
  0
LINE
  5
A79
330
1F
100
AcDbEntity
  8
SERR-EST
100
AcDbLine
 10
3699.802251952816
 20
3162.26865348954
 30
0.0
 11
3699.802251952818
 21
2462.268653489538
 31
0.0
  0
LINE
  5
A7A
330
1F
100
AcDbEntity
  8
SERR-EST
100
AcDbLine
 10
3694.802251952814
 20
3162.26865348954
 30
0.0
 11
3694.802251952816
 21
2462.268653489538
 31
0.0
  0
LINE
  5
A7B
330
1F
100
AcDbEntity
  8
SERR-EST
100
AcDbLine
 10
3674.802251952816
 20
3162.26865348954
 30
0.0
 11
3674.802251952818
 21
2462.268653489538
 31
0.0
  0
LINE
  5
A7C
330
1F
100
AcDbEntity
  8
MUR-EST
100
AcDbLine
 10
3024.802251952818
 20
2526.495758312074
 30
0.0
 11
3024.802251952818
 21
2462.268653489538
 31
0.0
  0
LINE
  5
A7D
330
1F
100
AcDbEntity
  8
MUR-EST
100
AcDbLine
 10
3044.802251952816
 20
2526.495758312074
 30
0.0
 11
3044.802251952816
 21
2462.268653489538
 31
0.0
  0
LINE
  5
A7E
330
1F
100
AcDbEntity
  8
MUR-EST
100
AcDbLine
 10
3024.802251952818
 20
4709.711169760023
 30
0.0
 11
3024.802251952818
 21
4066.495758312075
 31
0.0
  0
LINE
  5
A7F
330
1F
100
AcDbEntity
  8
MUR-EST
100
AcDbLine
 10
3044.802251952816
 20
4622.268653489538
 30
0.0
 11
3044.80225195282
 21
4066.495758312075
 31
0.0
  0
LINE
  5
A80
330
1F
100
AcDbEntity
  8
SERR-EST
100
AcDbLine
 10
3704.80225195282
 20
4622.268653489538
 30
0.0
 11
3704.80225195282
 21
3922.268653489538
 31
0.0
  0
LINE
  5
A81
330
1F
100
AcDbEntity
  8
SERR-EST
100
AcDbLine
 10
3699.802251952816
 20
4622.268653489538
 30
0.0
 11
3699.802251952818
 21
3922.268653489538
 31
0.0
  0
LINE
  5
A82
330
1F
100
AcDbEntity
  8
SERR-EST
100
AcDbLine
 10
3694.802251952814
 20
4622.268653489538
 30
0.0
 11
3694.802251952816
 21
3922.268653489538
 31
0.0
  0
LINE
  5
A83
330
1F
100
AcDbEntity
  8
SERR-EST
100
AcDbLine
 10
3674.802251952818
 20
4622.268653489538
 30
0.0
 11
3674.802251952818
 21
3922.268653489538
 31
0.0
  0
LINE
  5
A84
330
1F
100
AcDbEntity
  8
MUR-EST
100
AcDbLine
 10
3704.80225195282
 20
3922.268653489538
 30
0.0
 11
3044.802251952816
 21
3922.268653489538
 31
0.0
  0
LINE
  5
A85
330
1F
100
AcDbEntity
  8
MUR-EST
100
AcDbLine
 10
3704.80225195282
 20
3902.268653489539
 30
0.0
 11
3044.802251952816
 21
3902.268653489539
 31
0.0
  0
LINE
  5
A86
330
1F
100
AcDbEntity
  8
MUR-EST
100
AcDbLine
 10
3704.802251952818
 20
3182.268653489539
 30
0.0
 11
3044.802251952814
 21
3182.268653489539
 31
0.0
  0
LINE
  5
A87
330
1F
100
AcDbEntity
  8
MUR-EST
100
AcDbLine
 10
3704.802251952818
 20
3162.26865348954
 30
0.0
 11
3044.802251952814
 21
3162.26865348954
 31
0.0
  0
LINE
  5
A88
330
1F
100
AcDbEntity
  8
SERR-EST
100
AcDbLine
 10
3704.80225195282
 20
3902.268653489539
 30
0.0
 11
3704.802251952818
 21
3182.268653489539
 31
0.0
  0
LINE
  5
A89
330
1F
100
AcDbEntity
  8
SERR-EST
100
AcDbLine
 10
3699.802251952818
 20
3902.268653489539
 30
0.0
 11
3699.802251952816
 21
3182.268653489539
 31
0.0
  0
LINE
  5
A8A
330
1F
100
AcDbEntity
  8
SERR-EST
100
AcDbLine
 10
3694.802251952816
 20
3902.268653489539
 30
0.0
 11
3694.802251952814
 21
3182.268653489539
 31
0.0
  0
LINE
  5
A8B
330
1F
100
AcDbEntity
  8
SERR-EST
100
AcDbLine
 10
3674.802251952818
 20
3902.268653489539
 30
0.0
 11
3674.802251952816
 21
3182.268653489539
 31
0.0
  0
LINE
  5
A8C
330
1F
100
AcDbEntity
  8
MUR-EST
100
AcDbLine
 10
3704.802251952818
 20
3182.268653489539
 30
0.0
 11
3704.802251952818
 21
3162.26865348954
 31
0.0
  0
LINE
  5
A8D
330
1F
100
AcDbEntity
  8
MUR-EST
100
AcDbLine
 10
3704.80225195282
 20
3922.268653489538
 30
0.0
 11
3704.80225195282
 21
3902.268653489539
 31
0.0
  0
LINE
  5
A8E
330
1F
100
AcDbEntity
  8
MUR-EST
100
AcDbLine
 10
3044.802251952814
 20
3256.495758312076
 30
0.0
 11
3044.802251952814
 21
3182.268653489539
 31
0.0
  0
LINE
  5
A8F
330
1F
100
AcDbEntity
  8
MUR-EST
100
AcDbLine
 10
3024.80225195282
 20
3256.495758312076
 30
0.0
 11
3024.802251952821
 21
2606.495758312076
 31
0.0
  0
LINE
  5
A90
330
1F
100
AcDbEntity
  8
SERR-INT
100
AcDbLine
 10
3034.802251952818
 20
2606.495758312076
 30
0.0
 11
3034.802251952818
 21
2526.495758312074
 31
0.0
  0
LINE
  5
A91
330
1F
100
AcDbEntity
  8
MUR-EST
100
AcDbLine
 10
3044.802251952816
 20
2526.495758312074
 30
0.0
 11
3024.802251952818
 21
2526.495758312074
 31
0.0
  0
LINE
  5
A92
330
1F
100
AcDbEntity
  8
MUR-EST
100
AcDbLine
 10
3044.802251952814
 20
3162.26865348954
 30
0.0
 11
3044.802251952816
 21
2606.495758312076
 31
0.0
  0
LINE
  5
A93
330
1F
100
AcDbEntity
  8
MUR-EST
100
AcDbLine
 10
3044.802251952816
 20
2606.495758312076
 30
0.0
 11
3024.802251952821
 21
2606.495758312076
 31
0.0
  0
LINE
  5
A94
330
1F
100
AcDbEntity
  8
MUR-EST
100
AcDbLine
 10
3044.80225195282
 20
3902.268653489539
 30
0.0
 11
3044.802251952801
 21
3336.495758312076
 31
0.0
  0
LINE
  5
A95
330
1F
100
AcDbEntity
  8
MUR-EST
100
AcDbLine
 10
3044.802251952801
 20
3336.495758312076
 30
0.0
 11
3024.802251952816
 21
3336.495758312076
 31
0.0
  0
LINE
  5
A96
330
1F
100
AcDbEntity
  8
MUR-EST
100
AcDbLine
 10
3044.802251952814
 20
3256.495758312076
 30
0.0
 11
3024.80225195282
 21
3256.495758312076
 31
0.0
  0
LINE
  5
A97
330
1F
100
AcDbEntity
  8
SERR-INT
100
AcDbLine
 10
3034.802251952816
 20
3336.495758312076
 30
0.0
 11
3034.802251952816
 21
3256.495758312076
 31
0.0
  0
LINE
  5
A98
330
1F
100
AcDbEntity
  8
MUR-EST
100
AcDbLine
 10
3067.462072304016
 20
6062.268653489548
 30
0.0
 11
3044.802251952805
 21
6062.268653489548
 31
0.0
  0
LINE
  5
A99
330
1F
100
AcDbEntity
  8
MUR-EST
100
AcDbLine
 10
3067.46207230402
 20
6092.268653489547
 30
0.0
 11
2904.802251952814
 21
6092.268653489549
 31
0.0
  0
LINE
  5
A9A
330
1F
100
AcDbEntity
  8
MUR-EST
100
AcDbLine
 10
3064.802251952803
 20
5922.268653489545
 30
0.0
 11
3044.802251952816
 21
5922.268653489545
 31
0.0
  0
LINE
  5
A9B
330
1F
100
AcDbEntity
  8
MUR-EST
100
AcDbLine
 10
3064.802251952803
 20
5932.268653489546
 30
0.0
 11
3044.802251952816
 21
5932.268653489546
 31
0.0
  0
LINE
  5
A9C
330
1F
100
AcDbEntity
  8
MUR-EST
100
AcDbLine
 10
3164.802251952803
 20
5772.268653489546
 30
0.0
 11
3044.802251952816
 21
5772.268653489546
 31
0.0
  0
LINE
  5
A9D
330
1F
100
AcDbEntity
  8
MUR-EST
100
AcDbLine
 10
3244.802251952809
 20
5587.268653489545
 30
0.0
 11
3044.802251952809
 21
5587.268653489545
 31
0.0
  0
LINE
  5
A9E
330
1F
100
AcDbEntity
  8
MUR-EST
100
AcDbLine
 10
3234.802251952807
 20
5752.268653489545
 30
0.0
 11
3044.802251952816
 21
5752.268653489545
 31
0.0
  0
LINE
  5
A9F
330
1F
100
AcDbEntity
  8
MUR-EST
100
AcDbLine
 10
3234.802251952809
 20
5597.268653489546
 30
0.0
 11
3044.802251952816
 21
5597.268653489546
 31
0.0
  0
LINE
  5
AA0
330
1F
100
AcDbEntity
  8
MUR-EST
100
AcDbLine
 10
3704.80225195282
 20
5382.268653489547
 30
0.0
 11
3044.802251952816
 21
5382.268653489547
 31
0.0
  0
LINE
  5
AA1
330
1F
100
AcDbEntity
  8
MUR-EST
100
AcDbLine
 10
3704.80225195282
 20
5362.268653489548
 30
0.0
 11
3044.802251952809
 21
5362.268653489548
 31
0.0
  0
LINE
  5
AA2
330
1F
100
AcDbEntity
  8
MUR-EST
100
AcDbLine
 10
3704.80225195282
 20
4642.268653489538
 30
0.0
 11
3044.802251952816
 21
4642.268653489538
 31
0.0
  0
LINE
  5
AA3
330
1F
100
AcDbEntity
  8
MUR-EST
100
AcDbLine
 10
3704.80225195282
 20
4622.268653489538
 30
0.0
 11
3044.802251952816
 21
4622.268653489538
 31
0.0
  0
LINE
  5
AA4
330
1F
100
AcDbEntity
  8
SERR-EST
100
AcDbLine
 10
3704.80225195282
 20
5362.268653489548
 30
0.0
 11
3704.80225195282
 21
4642.268653489538
 31
0.0
  0
LINE
  5
AA5
330
1F
100
AcDbEntity
  8
SERR-EST
100
AcDbLine
 10
3699.802251952816
 20
5362.268653489548
 30
0.0
 11
3699.802251952816
 21
4642.268653489538
 31
0.0
  0
LINE
  5
AA6
330
1F
100
AcDbEntity
  8
SERR-EST
100
AcDbLine
 10
3694.802251952814
 20
5362.268653489548
 30
0.0
 11
3694.802251952814
 21
4642.268653489538
 31
0.0
  0
LINE
  5
AA7
330
1F
100
AcDbEntity
  8
SERR-EST
100
AcDbLine
 10
3674.802251952818
 20
5362.268653489548
 30
0.0
 11
3674.802251952818
 21
4642.268653489538
 31
0.0
  0
LINE
  5
AA8
330
1F
100
AcDbEntity
  8
MUR-EST
100
AcDbLine
 10
3704.80225195282
 20
4642.268653489538
 30
0.0
 11
3704.80225195282
 21
4622.268653489538
 31
0.0
  0
LINE
  5
AA9
330
1F
100
AcDbEntity
  8
MUR-EST
100
AcDbLine
 10
3174.802251952803
 20
5922.268653489545
 30
0.0
 11
3174.802251952803
 21
5811.181212110894
 31
0.0
  0
LINE
  5
AAA
330
1F
100
AcDbEntity
  8
MUR-EST
100
AcDbLine
 10
3164.802251952803
 20
5922.268653489545
 30
0.0
 11
3164.802251952803
 21
5772.268653489546
 31
0.0
  0
LINE
  5
AAB
330
1F
100
AcDbEntity
  8
SERR-EST
100
AcDbLine
 10
3704.80225195282
 20
6062.268653489548
 30
0.0
 11
3704.80225195282
 21
5772.268653489546
 31
0.0
  0
LINE
  5
AAC
330
1F
100
AcDbEntity
  8
SERR-EST
100
AcDbLine
 10
3699.802251952818
 20
6062.268653489548
 30
0.0
 11
3699.802251952816
 21
5772.268653489546
 31
0.0
  0
LINE
  5
AAD
330
1F
100
AcDbEntity
  8
SERR-EST
100
AcDbLine
 10
3694.802251952816
 20
6062.268653489548
 30
0.0
 11
3694.802251952814
 21
5772.268653489546
 31
0.0
  0
LINE
  5
AAE
330
1F
100
AcDbEntity
  8
SERR-EST
100
AcDbLine
 10
3674.802251952818
 20
6062.268653489548
 30
0.0
 11
3674.802251952818
 21
5772.268653489546
 31
0.0
  0
LINE
  5
AAF
330
1F
100
AcDbEntity
  8
MUR-EST
100
AcDbLine
 10
3540.010568336516
 20
5772.268653489546
 30
0.0
 11
3206.559566078645
 21
5772.268653489546
 31
0.0
  0
LINE
  5
AB0
330
1F
100
AcDbEntity
  8
MUR-EST
100
AcDbLine
 10
3540.010568336516
 20
5752.268653489545
 30
0.0
 11
3244.802251952805
 21
5752.268653489545
 31
0.0
  0
LINE
  5
AB1
330
1F
100
AcDbEntity
  8
SERR-EST
100
AcDbLine
 10
3704.80225195282
 20
5752.268653489545
 30
0.0
 11
3704.80225195282
 21
5382.268653489547
 31
0.0
  0
LINE
  5
AB2
330
1F
100
AcDbEntity
  8
SERR-EST
100
AcDbLine
 10
3699.802251952816
 20
5752.268653489545
 30
0.0
 11
3699.802251952816
 21
5382.268653489547
 31
0.0
  0
LINE
  5
AB3
330
1F
100
AcDbEntity
  8
SERR-EST
100
AcDbLine
 10
3694.802251952814
 20
5752.268653489545
 30
0.0
 11
3694.802251952814
 21
5382.268653489547
 31
0.0
  0
LINE
  5
AB4
330
1F
100
AcDbEntity
  8
SERR-EST
100
AcDbLine
 10
3674.802251952818
 20
5752.268653489545
 30
0.0
 11
3674.802251952818
 21
5382.268653489547
 31
0.0
  0
LINE
  5
AB5
330
1F
100
AcDbEntity
  8
MUR-EST
100
AcDbLine
 10
3704.80225195282
 20
5382.268653489547
 30
0.0
 11
3704.80225195282
 21
5362.268653489548
 31
0.0
  0
LINE
  5
AB6
330
1F
100
AcDbEntity
  8
SERR-INT
100
AcDbLine
 10
3620.010568336518
 20
5762.268653489545
 30
0.0
 11
3540.010568336516
 21
5762.268653489545
 31
0.0
  0
LINE
  5
AB7
330
1F
100
AcDbEntity
  8
MUR-EST
100
AcDbLine
 10
3540.010568336516
 20
5772.268653489546
 30
0.0
 11
3540.010568336516
 21
5752.268653489545
 31
0.0
  0
LINE
  5
AB8
330
1F
100
AcDbEntity
  8
MUR-EST
100
AcDbLine
 10
3620.010568336518
 20
5772.268653489546
 30
0.0
 11
3620.010568336518
 21
5752.268653489545
 31
0.0
  0
LINE
  5
AB9
330
1F
100
AcDbEntity
  8
MUR-EST
100
AcDbLine
 10
3704.80225195282
 20
5752.268653489545
 30
0.0
 11
3620.010568336518
 21
5752.268653489545
 31
0.0
  0
LINE
  5
ABA
330
1F
100
AcDbEntity
  8
MUR-EST
100
AcDbLine
 10
3704.80225195282
 20
5772.268653489546
 30
0.0
 11
3620.010568336518
 21
5772.268653489546
 31
0.0
  0
LINE
  5
ABB
330
1F
100
AcDbEntity
  8
MUR-EST
100
AcDbLine
 10
3704.80225195282
 20
5772.270470309784
 30
0.0
 11
3704.80225195282
 21
5752.270470309785
 31
0.0
  0
LINE
  5
ABC
330
1F
100
AcDbEntity
  8
MUR-EST
100
AcDbLine
 10
3244.802251952805
 20
5752.268653489545
 30
0.0
 11
3244.802251952809
 21
5587.268653489545
 31
0.0
  0
LINE
  5
ABD
330
1F
100
AcDbEntity
  8
MUR-EST
100
AcDbLine
 10
3234.802251952807
 20
5752.268653489545
 30
0.0
 11
3234.802251952809
 21
5597.268653489546
 31
0.0
  0
LINE
  5
ABE
330
1F
100
AcDbEntity
  8
MUR-EST
100
AcDbLine
 10
3206.559566078647
 20
5811.181212110894
 30
0.0
 11
3206.559566078645
 21
5772.268653489546
 31
0.0
  0
LINE
  5
ABF
330
1F
100
AcDbEntity
  8
MUR-EST
100
AcDbLine
 10
3174.802251952803
 20
5811.181212110894
 30
0.0
 11
3206.559566078647
 21
5811.181212110894
 31
0.0
  0
LINE
  5
AC0
330
1F
100
AcDbEntity
  8
MUR-EST
100
AcDbLine
 10
3604.802251952801
 20
6062.268653489548
 30
0.0
 11
3504.802251952801
 21
6062.268653489548
 31
0.0
  0
LINE
  5
AC1
330
1F
100
AcDbEntity
  8
SERR-INT
100
AcDbLine
 10
3584.802251952803
 20
5927.268653489545
 30
0.0
 11
3524.802251952801
 21
5927.268653489545
 31
0.0
  0
LINE
  5
AC2
330
1F
100
AcDbEntity
  8
MUR-EST
100
AcDbLine
 10
3704.80225195282
 20
6092.268653489547
 30
0.0
 11
3127.46207230402
 21
6092.268653489547
 31
0.0
  0
LINE
  5
AC3
330
1F
100
AcDbEntity
  8
MUR-EST
100
AcDbLine
 10
3604.802251952801
 20
6062.268653489548
 30
0.0
 11
3604.802251952801
 21
5932.268653489546
 31
0.0
  0
LINE
  5
AC4
330
1F
100
AcDbEntity
  8
MUR-EST
100
AcDbLine
 10
3614.802251952801
 20
6062.268653489548
 30
0.0
 11
3614.802251952798
 21
5922.268653489545
 31
0.0
  0
LINE
  5
AC5
330
1F
100
AcDbEntity
  8
MUR-EST
100
AcDbLine
 10
3614.802251952798
 20
5922.268653489545
 30
0.0
 11
3584.802251952803
 21
5922.268653489545
 31
0.0
  0
LINE
  5
AC6
330
1F
100
AcDbEntity
  8
MUR-EST
100
AcDbLine
 10
3604.802251952801
 20
5932.268653489546
 30
0.0
 11
3584.802251952803
 21
5932.268653489546
 31
0.0
  0
LINE
  5
AC7
330
1F
100
AcDbEntity
  8
MUR-EST
100
AcDbLine
 10
3584.802251952803
 20
5932.268653489546
 30
0.0
 11
3584.802251952803
 21
5922.268653489545
 31
0.0
  0
LINE
  5
AC8
330
1F
100
AcDbEntity
  8
MUR-EST
100
AcDbLine
 10
3704.80225195282
 20
6062.268653489548
 30
0.0
 11
3614.802251952801
 21
6062.268653489548
 31
0.0
  0
LINE
  5
AC9
330
1F
100
AcDbEntity
  8
MUR-EST
100
AcDbLine
 10
3704.80225195282
 20
6092.268653489547
 30
0.0
 11
3704.80225195282
 21
6062.268653489548
 31
0.0
  0
LINE
  5
ACA
330
1F
100
AcDbEntity
  8
MUR-EST
100
AcDbLine
 10
3164.802251952802
 20
6037.679190515886
 30
0.0
 11
3164.802251952803
 21
5932.268653489546
 31
0.0
  0
LINE
  5
ACB
330
1F
100
AcDbEntity
  8
MUR-EST
100
AcDbLine
 10
3504.802251952801
 20
6062.268653489548
 30
0.0
 11
3504.802251952801
 21
5932.268653489546
 31
0.0
  0
LINE
  5
ACC
330
1F
100
AcDbEntity
  8
MUR-EST
100
AcDbLine
 10
3494.802251952803
 20
6062.268653489548
 30
0.0
 11
3494.802251952803
 21
5932.268653489546
 31
0.0
  0
LINE
  5
ACD
330
1F
100
AcDbEntity
  8
MUR-EST
100
AcDbLine
 10
3394.802251952803
 20
6062.268653489548
 30
0.0
 11
3394.802251952803
 21
5932.268653489546
 31
0.0
  0
LINE
  5
ACE
330
1F
100
AcDbEntity
  8
MUR-EST
100
AcDbLine
 10
3384.802251952803
 20
6062.268653489548
 30
0.0
 11
3384.802251952803
 21
5932.268653489546
 31
0.0
  0
LINE
  5
ACF
330
1F
100
AcDbEntity
  8
MUR-EST
100
AcDbLine
 10
3284.802251952803
 20
6062.268653489548
 30
0.0
 11
3284.802251952803
 21
5932.268653489546
 31
0.0
  0
LINE
  5
AD0
330
1F
100
AcDbEntity
  8
MUR-EST
100
AcDbLine
 10
3274.802251952803
 20
6062.268653489548
 30
0.0
 11
3274.802251952803
 21
5932.268653489546
 31
0.0
  0
LINE
  5
AD1
330
1F
100
AcDbEntity
  8
MUR-EST
100
AcDbLine
 10
3174.802251952803
 20
6062.268653489548
 30
0.0
 11
3174.802251952803
 21
5932.268653489546
 31
0.0
  0
LINE
  5
AD2
330
1F
100
AcDbEntity
  8
MUR-EST
100
AcDbLine
 10
3304.802251952801
 20
5932.268653489546
 30
0.0
 11
3284.802251952803
 21
5932.268653489546
 31
0.0
  0
LINE
  5
AD3
330
1F
100
AcDbEntity
  8
MUR-EST
100
AcDbLine
 10
3304.802251952801
 20
5922.268653489545
 30
0.0
 11
3254.802251952805
 21
5922.268653489545
 31
0.0
  0
LINE
  5
AD4
330
1F
100
AcDbEntity
  8
SERR-INT
100
AcDbLine
 10
3474.802251952803
 20
5927.268653489545
 30
0.0
 11
3414.802251952802
 21
5927.268653489545
 31
0.0
  0
LINE
  5
AD5
330
1F
100
AcDbEntity
  8
SERR-INT
100
AcDbLine
 10
3364.802251952804
 20
5927.268653489545
 30
0.0
 11
3304.802251952801
 21
5927.268653489545
 31
0.0
  0
LINE
  5
AD6
330
1F
100
AcDbEntity
  8
MUR-EST
100
AcDbLine
 10
3384.802251952803
 20
5932.268653489546
 30
0.0
 11
3364.802251952804
 21
5932.268653489546
 31
0.0
  0
LINE
  5
AD7
330
1F
100
AcDbEntity
  8
MUR-EST
100
AcDbLine
 10
3414.802251952802
 20
5932.268653489546
 30
0.0
 11
3394.802251952803
 21
5932.268653489546
 31
0.0
  0
LINE
  5
AD8
330
1F
100
AcDbEntity
  8
MUR-EST
100
AcDbLine
 10
3494.802251952803
 20
5932.268653489546
 30
0.0
 11
3474.802251952803
 21
5932.268653489546
 31
0.0
  0
LINE
  5
AD9
330
1F
100
AcDbEntity
  8
MUR-EST
100
AcDbLine
 10
3524.802251952801
 20
5932.268653489546
 30
0.0
 11
3504.802251952801
 21
5932.268653489546
 31
0.0
  0
LINE
  5
ADA
330
1F
100
AcDbEntity
  8
MUR-EST
100
AcDbLine
 10
3474.802251952803
 20
5932.268653489546
 30
0.0
 11
3474.802251952803
 21
5922.268653489545
 31
0.0
  0
LINE
  5
ADB
330
1F
100
AcDbEntity
  8
MUR-EST
100
AcDbLine
 10
3414.802251952802
 20
5932.268653489546
 30
0.0
 11
3414.802251952802
 21
5922.268653489545
 31
0.0
  0
LINE
  5
ADC
330
1F
100
AcDbEntity
  8
MUR-EST
100
AcDbLine
 10
3364.802251952804
 20
5932.268653489546
 30
0.0
 11
3364.802251952804
 21
5922.268653489545
 31
0.0
  0
LINE
  5
ADD
330
1F
100
AcDbEntity
  8
MUR-EST
100
AcDbLine
 10
3304.802251952801
 20
5932.268653489546
 30
0.0
 11
3304.802251952801
 21
5922.268653489545
 31
0.0
  0
LINE
  5
ADE
330
1F
100
AcDbEntity
  8
MUR-EST
100
AcDbLine
 10
3414.802251952802
 20
5922.268653489545
 30
0.0
 11
3364.802251952804
 21
5922.268653489545
 31
0.0
  0
LINE
  5
ADF
330
1F
100
AcDbEntity
  8
MUR-EST
100
AcDbLine
 10
3524.802251952801
 20
5922.268653489545
 30
0.0
 11
3474.802251952803
 21
5922.268653489545
 31
0.0
  0
LINE
  5
AE0
330
1F
100
AcDbEntity
  8
MUR-EST
100
AcDbLine
 10
3524.802251952801
 20
5932.268653489546
 30
0.0
 11
3524.802251952801
 21
5922.268653489545
 31
0.0
  0
LINE
  5
AE1
330
1F
100
AcDbEntity
  8
SERR-INT
100
AcDbLine
 10
3254.802251952805
 20
5927.268653489545
 30
0.0
 11
3194.802251952803
 21
5927.268653489545
 31
0.0
  0
LINE
  5
AE2
330
1F
100
AcDbEntity
  8
SERR-INT
100
AcDbLine
 10
3144.802251952805
 20
5927.268653489545
 30
0.0
 11
3064.802251952803
 21
5927.268653489545
 31
0.0
  0
LINE
  5
AE3
330
1F
100
AcDbEntity
  8
MUR-EST
100
AcDbLine
 10
3164.802251952803
 20
5922.268653489545
 30
0.0
 11
3144.802251952805
 21
5922.268653489545
 31
0.0
  0
LINE
  5
AE4
330
1F
100
AcDbEntity
  8
MUR-EST
100
AcDbLine
 10
3194.802251952803
 20
5922.268653489545
 30
0.0
 11
3174.802251952803
 21
5922.268653489545
 31
0.0
  0
LINE
  5
AE5
330
1F
100
AcDbEntity
  8
MUR-EST
100
AcDbLine
 10
3164.802251952803
 20
5932.268653489546
 30
0.0
 11
3144.802251952805
 21
5932.268653489546
 31
0.0
  0
LINE
  5
AE6
330
1F
100
AcDbEntity
  8
MUR-EST
100
AcDbLine
 10
3194.802251952803
 20
5932.268653489546
 30
0.0
 11
3174.802251952803
 21
5932.268653489546
 31
0.0
  0
LINE
  5
AE7
330
1F
100
AcDbEntity
  8
MUR-EST
100
AcDbLine
 10
3274.802251952803
 20
5932.268653489546
 30
0.0
 11
3254.802251952805
 21
5932.268653489546
 31
0.0
  0
LINE
  5
AE8
330
1F
100
AcDbEntity
  8
MUR-EST
100
AcDbLine
 10
3254.802251952805
 20
5932.268653489546
 30
0.0
 11
3254.802251952805
 21
5922.268653489545
 31
0.0
  0
LINE
  5
AE9
330
1F
100
AcDbEntity
  8
MUR-EST
100
AcDbLine
 10
3194.802251952803
 20
5932.268653489546
 30
0.0
 11
3194.802251952803
 21
5922.268653489545
 31
0.0
  0
LINE
  5
AEA
330
1F
100
AcDbEntity
  8
MUR-EST
100
AcDbLine
 10
3144.802251952805
 20
5932.268653489546
 30
0.0
 11
3144.802251952805
 21
5922.268653489545
 31
0.0
  0
LINE
  5
AEB
330
1F
100
AcDbEntity
  8
MUR-EST
100
AcDbLine
 10
3064.802251952803
 20
5932.268653489546
 30
0.0
 11
3064.802251952803
 21
5922.268653489545
 31
0.0
  0
LINE
  5
AEC
330
1F
100
AcDbEntity
  8
MUR-EST
100
AcDbLine
 10
3384.802251952803
 20
6062.268653489548
 30
0.0
 11
3284.802251952803
 21
6062.268653489548
 31
0.0
  0
LINE
  5
AED
330
1F
100
AcDbEntity
  8
MUR-EST
100
AcDbLine
 10
3494.802251952803
 20
6062.268653489548
 30
0.0
 11
3394.802251952803
 21
6062.268653489548
 31
0.0
  0
LINE
  5
AEE
330
1F
100
AcDbEntity
  8
SERR-EST
100
AcDbLine
 10
3127.46207230402
 20
6092.268653489547
 30
0.0
 11
3067.46207230402
 21
6092.268653489547
 31
0.0
  0
LINE
  5
AEF
330
1F
100
AcDbEntity
  8
SERR-EST
100
AcDbLine
 10
3067.462072304016
 20
6062.268653489548
 30
0.0
 11
3127.462072304016
 21
6062.268653489548
 31
0.0
  0
LINE
  5
AF0
330
1F
100
AcDbEntity
  8
SERR-EST
100
AcDbLine
 10
3127.46207230402
 20
6082.268653489547
 30
0.0
 11
3067.46207230402
 21
6082.268653489547
 31
0.0
  0
LINE
  5
AF1
330
1F
100
AcDbEntity
  8
SERR-EST
100
AcDbLine
 10
3127.46207230402
 20
6077.268653489547
 30
0.0
 11
3067.46207230402
 21
6077.268653489547
 31
0.0
  0
LINE
  5
AF2
330
1F
100
AcDbEntity
  8
MUR-EST
100
AcDbLine
 10
3127.46207230402
 20
6092.268653489547
 30
0.0
 11
3127.462072304016
 21
6062.268653489548
 31
0.0
  0
LINE
  5
AF3
330
1F
100
AcDbEntity
  8
MUR-EST
100
AcDbLine
 10
3067.46207230402
 20
6092.268653489547
 30
0.0
 11
3067.462072304016
 21
6062.268653489548
 31
0.0
  0
LINE
  5
AF4
330
1F
100
AcDbEntity
  8
MUR-EST
100
AcDbLine
 10
3143.107730413286
 20
6062.268653489548
 30
0.0
 11
3127.462072304016
 21
6062.268653489548
 31
0.0
  0
LINE
  5
AF5
330
1F
100
AcDbEntity
  8
MUR-EST
100
AcDbLine
 10
3164.802251952802
 20
6037.679190515886
 30
0.0
 11
3143.107730413286
 21
6037.679190515886
 31
0.0
  0
LINE
  5
AF6
330
1F
100
AcDbEntity
  8
MUR-EST
100
AcDbLine
 10
3143.107730413286
 20
6037.679190515886
 30
0.0
 11
3143.107730413286
 21
6062.268653489548
 31
0.0
  0
LINE
  5
AF7
330
1F
100
AcDbEntity
  8
MUR-EST
100
AcDbLine
 10
3274.802251952803
 20
6062.268653489548
 30
0.0
 11
3174.802251952803
 21
6062.268653489548
 31
0.0
  0
LINE
  5
AF8
330
1F
100
AcDbEntity
  8
MUR-EST
100
AcDbLine
 10
3024.802251952818
 20
5457.268653489546
 30
0.0
 11
3024.802251952818
 21
4789.711169760025
 31
0.0
  0
LINE
  5
AF9
330
1F
100
AcDbEntity
  8
MUR-EST
100
AcDbLine
 10
3044.802251952809
 20
5362.268653489548
 30
0.0
 11
3044.802251952816
 21
4789.083709091963
 31
0.0
  0
LINE
  5
AFA
330
1F
100
AcDbEntity
  8
MUR-EST
100
AcDbLine
 10
3024.802251952818
 20
5822.268653489546
 30
0.0
 11
3024.802251952818
 21
5727.268653489545
 31
0.0
  0
LINE
  5
AFB
330
1F
100
AcDbEntity
  8
MUR-EST
100
AcDbLine
 10
3044.802251952803
 20
5822.268653489546
 30
0.0
 11
3044.802251952805
 21
5772.268653489546
 31
0.0
  0
LINE
  5
AFC
330
1F
100
AcDbEntity
  8
MUR-EST
100
AcDbLine
 10
3024.802251952818
 20
5647.268653489546
 30
0.0
 11
3024.802251952818
 21
5537.268653489546
 31
0.0
  0
LINE
  5
AFD
330
1F
100
AcDbEntity
  8
MUR-EST
100
AcDbLine
 10
3044.802251952809
 20
5647.268653489546
 30
0.0
 11
3044.802251952809
 21
5597.268653489546
 31
0.0
  0
LINE
  5
AFE
330
1F
100
AcDbEntity
  8
MUR-EST
100
AcDbLine
 10
3044.802251952809
 20
5587.268653489545
 30
0.0
 11
3044.802251952809
 21
5537.268653489546
 31
0.0
  0
LINE
  5
AFF
330
1F
100
AcDbEntity
  8
SERR-INT
100
AcDbLine
 10
3034.802251952814
 20
5537.268653489546
 30
0.0
 11
3034.802251952818
 21
5457.268653489546
 31
0.0
  0
LINE
  5
B00
330
1F
100
AcDbEntity
  8
MUR-EST
100
AcDbLine
 10
3044.802251952809
 20
5457.268653489546
 30
0.0
 11
3024.802251952818
 21
5457.268653489546
 31
0.0
  0
LINE
  5
B01
330
1F
100
AcDbEntity
  8
MUR-EST
100
AcDbLine
 10
3044.802251952809
 20
5457.268653489546
 30
0.0
 11
3044.802251952809
 21
5382.268653489547
 31
0.0
  0
LINE
  5
B02
330
1F
100
AcDbEntity
  8
MUR-EST
100
AcDbLine
 10
3044.802251952809
 20
5537.268653489546
 30
0.0
 11
3024.802251952818
 21
5537.268653489546
 31
0.0
  0
LINE
  5
B03
330
1F
100
AcDbEntity
  8
SERR-INT
100
AcDbLine
 10
3034.802251952818
 20
5727.268653489545
 30
0.0
 11
3034.802251952814
 21
5647.268653489546
 31
0.0
  0
LINE
  5
B04
330
1F
100
AcDbEntity
  8
MUR-EST
100
AcDbLine
 10
3044.802251952805
 20
5752.268653489545
 30
0.0
 11
3044.802251952805
 21
5727.268653489545
 31
0.0
  0
LINE
  5
B05
330
1F
100
AcDbEntity
  8
MUR-EST
100
AcDbLine
 10
3044.802251952809
 20
5647.268653489546
 30
0.0
 11
3024.802251952818
 21
5647.268653489546
 31
0.0
  0
LINE
  5
B06
330
1F
100
AcDbEntity
  8
MUR-EST
100
AcDbLine
 10
3044.802251952805
 20
5727.268653489545
 30
0.0
 11
3024.802251952818
 21
5727.268653489545
 31
0.0
  0
LINE
  5
B07
330
1F
100
AcDbEntity
  8
MUR-EST
100
AcDbLine
 10
3024.802251952818
 20
6062.268653489548
 30
0.0
 11
3024.802251952818
 21
5902.268653489548
 31
0.0
  0
LINE
  5
B08
330
1F
100
AcDbEntity
  8
MUR-EST
100
AcDbLine
 10
3044.802251952805
 20
6062.268653489548
 30
0.0
 11
3044.802251952803
 21
5932.268653489546
 31
0.0
  0
LINE
  5
B09
330
1F
100
AcDbEntity
  8
SERR-INT
100
AcDbLine
 10
3034.802251952818
 20
5902.268653489548
 30
0.0
 11
3034.802251952814
 21
5822.268653489546
 31
0.0
  0
LINE
  5
B0A
330
1F
100
AcDbEntity
  8
MUR-EST
100
AcDbLine
 10
3044.802251952803
 20
5922.268653489545
 30
0.0
 11
3044.802251952803
 21
5902.268653489548
 31
0.0
  0
LINE
  5
B0B
330
1F
100
AcDbEntity
  8
MUR-EST
100
AcDbLine
 10
3044.802251952803
 20
5822.268653489546
 30
0.0
 11
3024.802251952818
 21
5822.268653489546
 31
0.0
  0
LINE
  5
B0C
330
1F
100
AcDbEntity
  8
MUR-EST
100
AcDbLine
 10
3044.802251952803
 20
5902.268653489548
 30
0.0
 11
3024.802251952818
 21
5902.268653489548
 31
0.0
  0
LINE
  5
B0D
330
1F
100
AcDbEntity
  8
MUR-EST
100
AcDbLine
 10
3024.802251952818
 20
6062.268653489548
 30
0.0
 11
2904.802251952814
 21
6062.268653489543
 31
0.0
  0
LINE
  5
B0E
330
1F
100
AcDbEntity
  8
SCALE
100
AcDbLine
 10
2832.302251952813
 20
6510.086193931636
 30
0.0
 11
2832.302251952814
 21
6282.784954527457
 31
0.0
  0
LINE
  5
B0F
330
1F
100
AcDbEntity
  8
SCALE
100
AcDbLine
 10
2642.340108668378
 20
6283.299868474367
 30
0.0
 11
2642.340108668376
 21
6502.247876022824
 31
0.0
  0
LWPOLYLINE
  5
B10
330
1F
100
AcDbEntity
  8
SCALE
100
AcDbPolyline
 90
        3
 70
     1
 43
0.0
 10
2664.131754737617
 20
6464.503637850338
 10
2642.340108668376
 20
6502.247876022824
 10
2620.548462599136
 20
6464.503637850338
  0
LINE
  5
B11
330
1F
100
AcDbEntity
  8
SCALE
100
AcDbLine
 10
2764.802251952814
 20
6503.299868474368
 30
0.0
 11
2708.725923540852
 21
6503.299868474368
 31
0.0
  0
LINE
  5
B12
330
1F
100
AcDbEntity
  8
SERR-INT
100
AcDbLine
 10
3034.802251952818
 20
2526.495758312074
 30
0.0
 11
3114.802251952818
 21
2526.495758312074
 31
0.0
  0
ARC
  5
B13
330
1F
100
AcDbEntity
  8
SERR-INT
100
AcDbCircle
 10
3034.802251952818
 20
2526.495758312074
 30
0.0
 40
80.00000000000007
100
AcDbArc
 50
0.0
 51
90.0
  0
LINE
  5
B14
330
1F
100
AcDbEntity
  8
SERR-INT
100
AcDbLine
 10
2338.725923540847
 20
3822.268653489538
 30
0.0
 11
2258.725923540847
 21
3822.268653489538
 31
0.0
  0
LINE
  5
B15
330
1F
100
AcDbEntity
  8
SERR-INT
100
AcDbLine
 10
2338.725923540847
 20
3012.268653489539
 30
0.0
 11
2258.725923540847
 21
3012.268653489539
 31
0.0
  0
ARC
  5
B16
330
1F
100
AcDbEntity
  8
SERR-INT
100
AcDbCircle
 10
2338.725923540847
 20
3012.268653489539
 30
0.0
 40
80.00000000000001
100
AcDbArc
 50
180.0
 51
270.0
  0
ARC
  5
B17
330
1F
100
AcDbEntity
  8
SERR-INT
100
AcDbCircle
 10
2338.725923540847
 20
3822.268653489538
 30
0.0
 40
80.00000000000007
100
AcDbArc
 50
180.0
 51
270.0
  0
LINE
  5
B18
330
1F
100
AcDbEntity
  8
SERR-INT
100
AcDbLine
 10
3034.802251952816
 20
3256.495758312076
 30
0.0
 11
3114.802251952816
 21
3256.495758312076
 31
0.0
  0
ARC
  5
B19
330
1F
100
AcDbEntity
  8
SERR-INT
100
AcDbCircle
 10
3034.802251952816
 20
3256.495758312076
 30
0.0
 40
80.00000000000007
100
AcDbArc
 50
0.0
 51
90.0
  0
LINE
  5
B1A
330
1F
100
AcDbEntity
  8
SERR-INT
100
AcDbLine
 10
3034.80225195282
 20
3986.495758312076
 30
0.0
 11
3114.802251952822
 21
3986.495758312076
 31
0.0
  0
ARC
  5
B1B
330
1F
100
AcDbEntity
  8
SERR-INT
100
AcDbCircle
 10
3034.80225195282
 20
3986.495758312076
 30
0.0
 40
80.00000000000007
100
AcDbArc
 50
0.0
 51
90.0
  0
LINE
  5
B1C
330
1F
100
AcDbEntity
  8
MUR-EST
100
AcDbLine
 10
3044.80225195282
 20
4066.495758312075
 30
0.0
 11
3024.802251952823
 21
4066.495758312075
 31
0.0
  0
LINE
  5
B1D
330
1F
100
AcDbEntity
  8
MUR-EST
100
AcDbLine
 10
3044.80225195282
 20
3986.495758312076
 30
0.0
 11
3024.802251952821
 21
3986.495758312076
 31
0.0
  0
LINE
  5
B1E
330
1F
100
AcDbEntity
  8
SERR-INT
100
AcDbLine
 10
3034.80225195282
 20
4066.495758312075
 30
0.0
 11
3034.80225195282
 21
3986.495758312076
 31
0.0
  0
LINE
  5
B1F
330
1F
100
AcDbEntity
  8
MUR-EST
100
AcDbLine
 10
3024.802251952818
 20
3986.495758312076
 30
0.0
 11
3024.802251952816
 21
3336.495758312076
 31
0.0
  0
LINE
  5
B20
330
1F
100
AcDbEntity
  8
MUR-EST
100
AcDbLine
 10
3044.80225195282
 20
3986.495758312076
 30
0.0
 11
3044.80225195282
 21
3922.268653489538
 31
0.0
  0
LINE
  5
B21
330
1F
100
AcDbEntity
  8
SERR-INT
100
AcDbLine
 10
3034.80225195282
 20
4789.711169760025
 30
0.0
 11
3034.80225195282
 21
4709.711169760025
 31
0.0
  0
LINE
  5
B22
330
1F
100
AcDbEntity
  8
MUR-EST
100
AcDbLine
 10
3044.80225195282
 20
4709.711169760025
 30
0.0
 11
3024.802251952818
 21
4709.711169760023
 31
0.0
  0
LINE
  5
B23
330
1F
100
AcDbEntity
  8
MUR-EST
100
AcDbLine
 10
3044.80225195282
 20
4789.711169760025
 30
0.0
 11
3024.802251952818
 21
4789.711169760025
 31
0.0
  0
ARC
  5
B24
330
1F
100
AcDbEntity
  8
SERR-INT
100
AcDbCircle
 10
3034.80225195282
 20
4709.711169760025
 30
0.0
 40
80.00000000000007
100
AcDbArc
 50
0.0
 51
90.0
  0
LINE
  5
B25
330
1F
100
AcDbEntity
  8
SERR-INT
100
AcDbLine
 10
3034.80225195282
 20
4709.711169760025
 30
0.0
 11
3114.802251952822
 21
4709.711169760025
 31
0.0
  0
LINE
  5
B26
330
1F
100
AcDbEntity
  8
MUR-EST
100
AcDbLine
 10
3044.802251952816
 20
4709.711169760023
 30
0.0
 11
3044.802251952816
 21
4642.268653489536
 31
0.0
  0
LINE
  5
B27
330
1F
100
AcDbEntity
  8
SERR-INT
100
AcDbLine
 10
2338.72592354085
 20
4482.268653489538
 30
0.0
 11
2258.72592354085
 21
4482.268653489538
 31
0.0
  0
ARC
  5
B28
330
1F
100
AcDbEntity
  8
SERR-INT
100
AcDbCircle
 10
2338.72592354085
 20
4482.268653489538
 30
0.0
 40
80.00000000000007
100
AcDbArc
 50
180.0
 51
270.0
  0
LINE
  5
B29
330
1F
100
AcDbEntity
  8
SERR-INT
100
AcDbLine
 10
2338.725923540858
 20
4992.268653489539
 30
0.0
 11
2258.725923540858
 21
4992.268653489539
 31
0.0
  0
ARC
  5
B2A
330
1F
100
AcDbEntity
  8
SERR-INT
100
AcDbCircle
 10
2338.725923540858
 20
4992.268653489539
 30
0.0
 40
80.00000000000007
100
AcDbArc
 50
180.0
 51
270.0
  0
LINE
  5
B2B
330
1F
100
AcDbEntity
  8
SERR-INT
100
AcDbLine
 10
1753.517607157148
 20
5762.268653489545
 30
0.0
 11
1753.517607157148
 21
5682.268653489546
 31
0.0
  0
LINE
  5
B2C
330
1F
100
AcDbEntity
  8
SERR-INT
100
AcDbLine
 10
2338.725923540847
 20
5647.268653489546
 30
0.0
 11
2258.725923540847
 21
5647.268653489546
 31
0.0
  0
ARC
  5
B2D
330
1F
100
AcDbEntity
  8
SERR-INT
100
AcDbCircle
 10
2338.725923540847
 20
5647.268653489546
 30
0.0
 40
80.00000000000007
100
AcDbArc
 50
90.0
 51
180.0
  0
ARC
  5
B2E
330
1F
100
AcDbEntity
  8
SERR-INT
100
AcDbCircle
 10
1753.517607157148
 20
5762.268653489545
 30
0.0
 40
80.00000000000113
100
AcDbArc
 50
270.0
 51
0.0
  0
ARC
  5
B2F
330
1F
100
AcDbEntity
  8
SERR-INT
100
AcDbCircle
 10
3590.12516335762
 20
5932.202320719296
 30
0.0
 40
65.3587535363939
100
AcDbArc
 50
184.3515806711105
 51
265.3285750880418
  0
LINE
  5
B30
330
1F
100
AcDbEntity
  8
SERR-INT
100
AcDbLine
 10
3584.802251952803
 20
5927.268653489545
 30
0.0
 11
3584.802251952803
 21
5867.060680595583
 31
0.0
  0
ARC
  5
B31
330
1F
100
AcDbEntity
  8
SERR-INT
100
AcDbCircle
 10
3370.125163357622
 20
5932.202320719296
 30
0.0
 40
65.3587535363939
100
AcDbArc
 50
184.3515806711105
 51
265.3285750880418
  0
LINE
  5
B32
330
1F
100
AcDbEntity
  8
SERR-INT
100
AcDbLine
 10
3364.802251952804
 20
5927.268653489545
 30
0.0
 11
3364.802251952804
 21
5867.060680595583
 31
0.0
  0
LINE
  5
B33
330
1F
100
AcDbEntity
  8
SERR-INT
100
AcDbLine
 10
3474.802251952803
 20
5927.268653489545
 30
0.0
 11
3474.802251952803
 21
5867.060680595583
 31
0.0
  0
ARC
  5
B34
330
1F
100
AcDbEntity
  8
SERR-INT
100
AcDbCircle
 10
3480.125163357622
 20
5932.202320719296
 30
0.0
 40
65.3587535363939
100
AcDbArc
 50
184.3515806711105
 51
265.3285750880418
  0
LINE
  5
B35
330
1F
100
AcDbEntity
  8
SERR-INT
100
AcDbLine
 10
3254.802251952805
 20
5927.268653489548
 30
0.0
 11
3254.802251952805
 21
5867.060680595583
 31
0.0
  0
ARC
  5
B36
330
1F
100
AcDbEntity
  8
SERR-INT
100
AcDbCircle
 10
3260.125163357622
 20
5932.202320719296
 30
0.0
 40
65.3587535363939
100
AcDbArc
 50
184.3515806711105
 51
265.3285750880418
  0
ARC
  5
B37
330
1F
100
AcDbEntity
  8
SERR-INT
100
AcDbCircle
 10
3620.010568336518
 20
5762.268653489545
 30
0.0
 40
80.00000000000113
100
AcDbArc
 50
180.0
 51
270.0
  0
LINE
  5
B38
330
1F
100
AcDbEntity
  8
SERR-INT
100
AcDbLine
 10
3620.010568336518
 20
5762.268653489545
 30
0.0
 11
3620.010568336518
 21
5682.268653489546
 31
0.0
  0
LINE
  5
B39
330
1F
100
AcDbEntity
  8
SCALE
100
AcDbLine
 10
2904.802251952816
 20
6656.299868474367
 30
0.0
 11
2568.725923540854
 21
6656.29986847437
 31
0.0
  0
LINE
  5
B3A
330
1F
100
AcDbEntity
  8
SCALE
100
AcDbLine
 10
2894.802251952816
 20
6646.299868474367
 30
0.0
 11
2578.725923540849
 21
6646.299868474371
 31
0.0
  0
LINE
  5
B3B
330
1F
100
AcDbEntity
  8
SCALE
100
AcDbLine
 10
2759.802251952814
 20
6498.299868474368
 30
0.0
 11
2713.725923540852
 21
6498.299868474368
 31
0.0
  0
LINE
  5
B3C
330
1F
100
AcDbEntity
  8
MUR-EST
100
AcDbLine
 10
2984.80225195282
 20
1702.589660203315
 30
0.0
 11
2706.700096203507
 21
1702.589660203315
 31
0.0
  0
LINE
  5
B3D
330
1F
100
AcDbEntity
  8
MUR-EST
100
AcDbLine
 10
2383.725923540847
 20
1732.589660203311
 30
0.0
 11
2631.700096203506
 21
1732.589660203311
 31
0.0
  0
LINE
  5
B3E
330
1F
100
AcDbEntity
  8
MUR-EST
100
AcDbLine
 10
2984.802251952821
 20
1732.589660203311
 30
0.0
 11
2706.700096203507
 21
1732.589660203311
 31
0.0
  0
LINE
  5
B3F
330
1F
100
AcDbEntity
  8
MUR-EST
100
AcDbLine
 10
2383.725923540847
 20
1702.850479070441
 30
0.0
 11
2631.700096203506
 21
1702.850479070441
 31
0.0
  0
LINE
  5
B40
330
1F
100
AcDbEntity
  8
TETTO
  6
DASHED
370
    15
100
AcDbLine
 10
1364.262760101072
 20
1732.101181260846
 30
0.0
 11
1364.262760101083
 21
532.2686534895833
 31
0.0
  0
LINE
  5
B41
330
1F
100
AcDbEntity
  8
MUR-EST
  6
DASHED
100
AcDbLine
 10
1364.262760101072
 20
1732.101181260846
 30
0.0
 11
2353.725923540847
 21
1732.101181260857
 31
0.0
  0
LINE
  5
B42
330
1F
100
AcDbEntity
  8
TETTO
  6
DASHED
370
    15
100
AcDbLine
 10
4134.262760101083
 20
532.268653489627
 30
0.0
 11
1364.262760101083
 21
532.2686534895833
 31
0.0
  0
LINE
  5
B43
330
1F
100
AcDbEntity
  8
SERR-INT
100
AcDbLine
 10
2631.700096203506
 20
1717.720069636876
 30
0.0
 11
2631.700096203506
 21
1644.272426698434
 31
0.0
  0
ARC
  5
B44
330
1F
100
AcDbEntity
  8
SERR-INT
100
AcDbCircle
 10
2631.287784432144
 20
1717.321612305471
 30
0.0
 40
73.05034920414584
100
AcDbArc
 50
270.3233913325786
 51
0.2134611488489425
  0
LINE
  5
B45
330
1F
100
AcDbEntity
  8
SERR-INT
100
AcDbLine
 10
2631.792169684504
 20
1717.935747127814
 30
0.0
 11
2706.700096203507
 21
1717.935747127814
 31
0.0
  0
INSERT
  5
B46
330
1F
100
AcDbEntity
  8
DEST-LOC
100
AcDbBlockReference
 66
     1
  2
DEST-LOC
 10
2700.387870815428
 20
1035.03545146014
 30
0.0
 41
20.0
 42
20.0
 43
20.0
  0
ATTRIB
  5
B47
330
B46
100
AcDbEntity
  8
0
100
AcDbText
 10
2646.732617944048
 20
1033.052486208938
 30
0.0
 40
30.0
  1
SOTTOTETTO
  7
ROMANS
 72
     4
 11
2778.875475086905
 21
1048.052486208938
 31
0.0
100
AcDbAttribute
  2
DEST-LOC
 70
     0
  0
ATTRIB
  5
B48
330
B46
100
AcDbEntity
  8
0
100
AcDbText
 10
2778.875475086905
 20
1019.593738453198
 30
0.0
 40
20.0
  1

  7
ROMANS
 72
     4
 11
2778.875475086905
 21
1019.593738453198
 31
0.0
100
AcDbAttribute
  2
DEST-LOC
 70
     0
  0
SEQEND
  5
B49
330
B46
100
AcDbEntity
  8
DEST-LOC
  0
LINE
  5
B4A
330
1F
100
AcDbEntity
  8
SERR-EST
100
AcDbLine
 10
2563.725923540845
 20
2212.268653489538
 30
0.0
 11
2563.725923540845
 21
1942.268653489538
 31
0.0
  0
LINE
  5
B4B
330
1F
100
AcDbEntity
  8
SERR-EST
100
AcDbLine
 10
2804.802251952822
 20
2212.268653489538
 30
0.0
 11
2804.80225195282
 21
1942.268653489541
 31
0.0
  0
LINE
  5
B4C
330
1F
100
AcDbEntity
  8
SERR-EST
100
AcDbLine
 10
2794.802251952821
 20
2202.268653489538
 30
0.0
 11
2794.80225195282
 21
1952.268653489541
 31
0.0
  0
LINE
  5
B4D
330
1F
100
AcDbEntity
  8
SERR-EST
100
AcDbLine
 10
2573.725923540847
 20
2202.268653489538
 30
0.0
 11
2573.725923540845
 21
1952.268653489538
 31
0.0
  0
LINE
  5
B4E
330
1F
100
AcDbEntity
  8
SCALE
100
AcDbLine
 10
2794.80225195282
 20
1952.268653489541
 30
0.0
 11
2573.725923540845
 21
1952.268653489538
 31
0.0
  0
LINE
  5
B4F
330
1F
100
AcDbEntity
  8
SCALE
100
AcDbLine
 10
2794.802251952821
 20
2202.268653489538
 30
0.0
 11
2573.725923540847
 21
2202.268653489538
 31
0.0
  0
LINE
  5
B50
330
1F
100
AcDbEntity
  8
SCALE
100
AcDbLine
 10
2563.725923540847
 20
2202.268653489538
 30
0.0
 11
2383.725923540847
 21
2202.268653489538
 31
0.0
  0
ARC
  5
B51
330
1F
100
AcDbEntity
  8
SERR-INT
100
AcDbCircle
 10
2338.725923540847
 20
5822.268653489546
 30
0.0
 40
80.00000000000007
100
AcDbArc
 50
0.0
 51
90.0
  0
LINE
  5
B52
330
1F
100
AcDbEntity
  8
SERR-INT
100
AcDbLine
 10
2338.725923540847
 20
5822.268653489546
 30
0.0
 11
2418.72592354085
 21
5822.26865348954
 31
0.0
  0
LINE
  5
B53
330
1F
100
AcDbEntity
  8
SERR-INT
100
AcDbLine
 10
2338.725923540847
 20
5902.268653489546
 30
0.0
 11
2338.72592354085
 21
5822.268653489546
 31
0.0
  0
LINE
  5
B54
330
1F
100
AcDbEntity
  8
MUR-EST
100
AcDbLine
 10
1668.725923540846
 20
6062.268653489548
 30
0.0
 11
1732.953059196991
 21
6062.268653489548
 31
0.0
  0
LINE
  5
B55
330
1F
100
AcDbEntity
  8
MUR-EST
100
AcDbLine
 10
1833.517607157148
 20
5772.268653489546
 30
0.0
 11
2328.725923540859
 21
5772.268653489546
 31
0.0
  0
LINE
  5
B56
330
1F
100
AcDbEntity
  8
SERR-INT
100
AcDbLine
 10
1753.517607157148
 20
5762.268653489545
 30
0.0
 11
1833.517607157148
 21
5762.268653489545
 31
0.0
  0
LINE
  5
B57
330
1F
100
AcDbEntity
  8
MUR-EST
100
AcDbLine
 10
2328.725923540863
 20
6062.268653489548
 30
0.0
 11
2328.725923540863
 21
5902.268653489548
 31
0.0
  0
LINE
  5
B58
330
1F
100
AcDbEntity
  8
MUR-EST
100
AcDbLine
 10
2108.725923540863
 20
5772.268653489546
 30
0.0
 11
2328.725923540859
 21
5772.268653489546
 31
0.0
  0
LINE
  5
B59
330
1F
100
AcDbEntity
  8
MUR-EST
100
AcDbLine
 10
2328.725923540863
 20
5822.268653489546
 30
0.0
 11
2328.725923540859
 21
5772.268653489546
 31
0.0
  0
LINE
  5
B5A
330
1F
100
AcDbEntity
  8
MUR-EST
100
AcDbLine
 10
1668.725923540846
 20
6062.268653489548
 30
0.0
 11
2246.066103189648
 21
6062.268653489548
 31
0.0
  0
LINE
  5
B5B
330
1F
100
AcDbEntity
  8
SERR-EST
100
AcDbLine
 10
2246.066103189646
 20
6077.268653489547
 30
0.0
 11
2306.066103189644
 21
6077.268653489547
 31
0.0
  0
LINE
  5
B5C
330
1F
100
AcDbEntity
  8
SERR-EST
100
AcDbLine
 10
2306.066103189648
 20
6062.268653489548
 30
0.0
 11
2246.066103189648
 21
6062.268653489548
 31
0.0
  0
LINE
  5
B5D
330
1F
100
AcDbEntity
  8
MUR-EST
100
AcDbLine
 10
2306.066103189648
 20
6062.268653489548
 30
0.0
 11
2328.725923540859
 21
6062.268653489548
 31
0.0
  0
LINE
  5
B5E
330
1F
100
AcDbEntity
  8
MUR-EST
100
AcDbLine
 10
1668.725923540846
 20
5772.268653489546
 30
0.0
 11
1753.517607157148
 21
5772.268653489546
 31
0.0
  0
LINE
  5
B5F
330
1F
100
AcDbEntity
  8
SERR-INT
100
AcDbLine
 10
2712.316860325206
 20
6037.742103370071
 30
0.0
 11
2712.316860325206
 21
6152.135543182663
 31
0.0
  0
LINE
  5
B60
330
1F
100
AcDbEntity
  8
SERR-INT
100
AcDbLine
 10
2632.316860325206
 20
6073.805717684162
 30
0.0
 11
2632.316860325206
 21
6153.805717684163
 31
0.0
  0
LINE
  5
B61
330
1F
100
AcDbEntity
  8
MUR-EST
100
AcDbLine
 10
2607.316860325208
 20
6092.268653489547
 30
0.0
 11
2607.316860325208
 21
6062.26865348954
 31
0.0
  0
LINE
  5
B62
330
1F
100
AcDbEntity
  8
MUR-EST
100
AcDbLine
 10
2817.316860325208
 20
6092.268653489551
 30
0.0
 11
2817.316860325208
 21
6062.268653489542
 31
0.0
  0
LINE
  5
B63
330
1F
100
AcDbEntity
  8
SCALE
100
AcDbLine
 10
2708.725923540848
 20
6247.148693931638
 30
0.0
 11
2894.802251952816
 21
6247.148693931638
 31
0.0
  0
LINE
  5
B64
330
1F
100
AcDbEntity
  8
SCALE
100
AcDbLine
 10
2764.802251952814
 20
6272.148693931638
 30
0.0
 11
2894.802251952816
 21
6272.148693931638
 31
0.0
  0
LINE
  5
B65
330
1F
100
AcDbEntity
  8
SCALE
100
AcDbLine
 10
2764.802251952814
 20
6297.148693931639
 30
0.0
 11
2894.802251952816
 21
6297.148693931639
 31
0.0
  0
LINE
  5
B66
330
1F
100
AcDbEntity
  8
SCALE
100
AcDbLine
 10
2764.802251952814
 20
6322.148693931638
 30
0.0
 11
2894.802251952816
 21
6322.148693931638
 31
0.0
  0
LINE
  5
B67
330
1F
100
AcDbEntity
  8
SCALE
100
AcDbLine
 10
2764.802251952814
 20
6347.148693931639
 30
0.0
 11
2894.802251952816
 21
6347.148693931639
 31
0.0
  0
LINE
  5
B68
330
1F
100
AcDbEntity
  8
SCALE
100
AcDbLine
 10
2764.802251952814
 20
6372.148693931638
 30
0.0
 11
2894.802251952816
 21
6372.148693931638
 31
0.0
  0
LINE
  5
B69
330
1F
100
AcDbEntity
  8
SCALE
100
AcDbLine
 10
2764.802251952814
 20
6397.148693931638
 30
0.0
 11
2894.802251952816
 21
6397.148693931638
 31
0.0
  0
LINE
  5
B6A
330
1F
100
AcDbEntity
  8
SCALE
100
AcDbLine
 10
2764.802251952814
 20
6422.148693931638
 30
0.0
 11
2894.802251952816
 21
6422.148693931638
 31
0.0
  0
LINE
  5
B6B
330
1F
100
AcDbEntity
  8
SCALE
100
AcDbLine
 10
2764.802251952814
 20
6447.148693931637
 30
0.0
 11
2894.802251952816
 21
6447.148693931637
 31
0.0
  0
LINE
  5
B6C
330
1F
100
AcDbEntity
  8
SCALE
100
AcDbLine
 10
2568.725923540847
 20
6092.268653489547
 30
0.0
 11
2568.725923540854
 21
6656.29986847437
 31
0.0
  0
LINE
  5
B6D
330
1F
100
AcDbEntity
  8
SCALE
100
AcDbLine
 10
2578.725923540854
 20
6092.268653489547
 30
0.0
 11
2578.725923540849
 21
6646.299868474371
 31
0.0
  0
LINE
  5
B6E
330
1F
100
AcDbEntity
  8
SCALE
100
AcDbLine
 10
2708.725923540848
 20
6247.148693931638
 30
0.0
 11
2708.725923540852
 21
6503.299868474368
 31
0.0
  0
LINE
  5
B6F
330
1F
100
AcDbEntity
  8
SCALE
100
AcDbLine
 10
2642.340108668376
 20
6277.212303612918
 30
0.0
 11
2642.340108668376
 21
6431.915481861253
 31
0.0
  0
LINE
  5
B70
330
1F
100
AcDbEntity
  8
SCALE
100
AcDbLine
 10
2764.802251952814
 20
6247.148693931638
 30
0.0
 11
2764.802251952814
 21
6503.299868474368
 31
0.0
  0
LINE
  5
B71
330
1F
100
AcDbEntity
  8
SCALE
100
AcDbLine
 10
2759.802251952814
 20
6252.148693931641
 30
0.0
 11
2759.802251952814
 21
6498.299868474368
 31
0.0
  0
LINE
  5
B72
330
1F
100
AcDbEntity
  8
SCALE
100
AcDbLine
 10
2578.725923540852
 20
6378.299868474368
 30
0.0
 11
2708.725923540852
 21
6378.299868474368
 31
0.0
  0
LINE
  5
B73
330
1F
100
AcDbEntity
  8
SCALE
100
AcDbLine
 10
2578.725923540852
 20
6403.299868474367
 30
0.0
 11
2708.725923540852
 21
6403.299868474367
 31
0.0
  0
LINE
  5
B74
330
1F
100
AcDbEntity
  8
SCALE
100
AcDbLine
 10
2578.725923540852
 20
6303.299868474367
 30
0.0
 11
2708.725923540852
 21
6303.299868474367
 31
0.0
  0
LINE
  5
B75
330
1F
100
AcDbEntity
  8
SCALE
100
AcDbLine
 10
2578.725923540852
 20
6328.299868474367
 30
0.0
 11
2708.725923540852
 21
6328.299868474367
 31
0.0
  0
LINE
  5
B76
330
1F
100
AcDbEntity
  8
SCALE
100
AcDbLine
 10
2578.725923540852
 20
6353.299868474367
 30
0.0
 11
2708.725923540852
 21
6353.299868474367
 31
0.0
  0
LINE
  5
B77
330
1F
100
AcDbEntity
  8
SCALE
100
AcDbLine
 10
2713.725923540852
 20
6252.148693931641
 30
0.0
 11
2759.802251952814
 21
6252.148693931641
 31
0.0
  0
LINE
  5
B78
330
1F
100
AcDbEntity
  8
SCALE
100
AcDbLine
 10
2713.725923540852
 20
6252.148693931641
 30
0.0
 11
2713.725923540852
 21
6498.299868474368
 31
0.0
  0
LINE
  5
B79
330
1F
100
AcDbEntity
  8
SCALE
100
AcDbLine
 10
2578.725923540852
 20
6428.299868474367
 30
0.0
 11
2708.725923540852
 21
6428.299868474367
 31
0.0
  0
LINE
  5
B7A
330
1F
100
AcDbEntity
  8
SCALE
100
AcDbLine
 10
2578.725923540852
 20
6453.299868474367
 30
0.0
 11
2708.725923540852
 21
6453.299868474367
 31
0.0
  0
LINE
  5
B7B
330
1F
100
AcDbEntity
  8
SCALE
100
AcDbLine
 10
2832.302251952814
 20
6510.086193931636
 30
0.0
 11
2832.302251952814
 21
6283.998629070187
 31
0.0
  0
LINE
  5
B7C
330
1F
100
AcDbEntity
  8
SCALE
100
AcDbLine
 10
2904.802251952814
 20
6092.268653489551
 30
0.0
 11
2904.802251952816
 21
6656.299868474367
 31
0.0
  0
LINE
  5
B7D
330
1F
100
AcDbEntity
  8
SCALE
100
AcDbLine
 10
2894.802251952814
 20
6092.268653489551
 30
0.0
 11
2894.802251952816
 21
6646.299868474367
 31
0.0
  0
LINE
  5
B7E
330
1F
100
AcDbEntity
  8
SCALE
100
AcDbLine
 10
2904.802251952819
 20
6092.268653489549
 30
0.0
 11
2904.802251952814
 21
6092.268653489551
 31
0.0
  0
LINE
  5
B7F
330
1F
100
AcDbEntity
  8
SCALE
100
AcDbLine
 10
2904.802251952814
 20
6092.268653489551
 30
0.0
 11
2894.802251952814
 21
6092.268653489551
 31
0.0
  0
LWPOLYLINE
  5
B80
330
1F
100
AcDbEntity
  8
SCALE
100
AcDbPolyline
 90
        3
 70
     1
 43
0.0
 10
2854.093898022054
 20
6340.11697592109
 10
2832.302251952814
 20
6302.372737748605
 10
2810.510605883573
 20
6340.11697592109
  0
LINE
  5
B81
330
1F
100
AcDbEntity
  8
SERR-EST
100
AcDbLine
 10
2275.619012951599
 20
6111.264449227743
 30
0.0
 11
2275.619012951599
 21
6042.145347836549
 31
0.0
  0
LINE
  5
B82
330
1F
100
AcDbEntity
  8
SERR-EST
100
AcDbLine
 10
2246.066103189646
 20
6082.268653489547
 30
0.0
 11
2306.066103189644
 21
6082.268653489547
 31
0.0
  0
LINE
  5
B83
330
1F
100
AcDbEntity
  8
SERR-EST
100
AcDbLine
 10
2246.066103189646
 20
6092.268653489547
 30
0.0
 11
2306.066103189644
 21
6092.268653489547
 31
0.0
  0
LINE
  5
B84
330
1F
100
AcDbEntity
  8
MUR-EST
100
AcDbLine
 10
2306.066103189644
 20
6092.268653489547
 30
0.0
 11
2306.066103189648
 21
6062.268653489548
 31
0.0
  0
LINE
  5
B85
330
1F
100
AcDbEntity
  8
MUR-EST
100
AcDbLine
 10
2246.066103189646
 20
6092.268653489547
 30
0.0
 11
2246.066103189648
 21
6062.268653489548
 31
0.0
  0
LINE
  5
B86
330
1F
100
AcDbEntity
  8
SCALE
100
AcDbLine
 10
2578.725923540852
 20
6478.299868474367
 30
0.0
 11
2708.725923540852
 21
6478.299868474367
 31
0.0
  0
LINE
  5
B87
330
1F
100
AcDbEntity
  8
SCALE
100
AcDbLine
 10
2764.802251952814
 20
6472.148693931638
 30
0.0
 11
2894.802251952816
 21
6472.148693931638
 31
0.0
  0
LINE
  5
B88
330
1F
100
AcDbEntity
  8
SCALE
100
AcDbLine
 10
2578.725923540852
 20
6503.299868474368
 30
0.0
 11
2708.725923540852
 21
6503.299868474368
 31
0.0
  0
LINE
  5
B89
330
1F
100
AcDbEntity
  8
LINEA-SEZIO
100
AcDbLine
 10
2787.528925395702
 20
370.4964259101466
 30
0.0
 11
2787.528925395702
 21
510.0456564758856
 31
0.0
  0
LWPOLYLINE
  5
B8A
330
1F
100
AcDbEntity
  8
LINEA-SEZIO
 62
     3
100
AcDbPolyline
 90
        3
 70
     1
 43
0.0
 10
2771.969614193031
 20
372.5218320913423
 10
2771.969614193031
 20
453.4592007916303
 10
2753.091371148304
 20
412.9905164414862
  0
SOLID
  5
B8B
330
1F
100
AcDbEntity
  8
LINEA-SEZIO
 62
     3
100
AcDbTrace
 10
2771.969614193031
 20
453.4592007916285
 30
0.0
 11
2753.091371148304
 21
412.9905164414881
 31
0.0
 12
2771.969614193031
 22
372.5218320913405
 32
0.0
 13
2771.969614193031
 23
372.5218320913405
 33
0.0
  0
TEXT
  5
B8C
330
1F
100
AcDbEntity
  8
LINEA-SEZIO
 62
     3
100
AcDbText
 10
2786.686778933539
 20
328.2748581355161
 30
0.0
 40
35.0
  1
A
 50
90.0
  7
ROMANC
 72
     4
 11
2769.186778933539
 21
344.9415248021828
 31
0.0
100
AcDbText
  0
LINE
  5
B8D
330
1F
100
AcDbEntity
  8
LINEA-SEZIO
100
AcDbLine
 10
2787.528925395702
 20
6581.697111944837
 30
0.0
 11
2787.528925395702
 21
6721.246342510579
 31
0.0
  0
LWPOLYLINE
  5
B8E
330
1F
100
AcDbEntity
  8
LINEA-SEZIO
 62
     3
100
AcDbPolyline
 90
        3
 70
     1
 43
0.0
 10
2771.969614193031
 20
6671.096603670054
 10
2771.969614193031
 20
6722.033972370339
 10
2753.091371148304
 20
6681.565288020197
  0
SOLID
  5
B8F
330
1F
100
AcDbEntity
  8
LINEA-SEZIO
 62
     3
100
AcDbTrace
 10
2771.969614193031
 20
6722.033972370339
 30
0.0
 11
2753.091371148304
 21
6681.565288020198
 31
0.0
 12
2771.969614193031
 22
6671.096603670054
 32
0.0
 13
2771.969614193031
 23
6671.096603670054
 33
0.0
  0
TEXT
  5
B90
330
1F
100
AcDbEntity
  8
LINEA-SEZIO
 62
     3
100
AcDbText
 10
2786.686778933539
 20
6729.288170882212
 30
0.0
 40
35.0
  1
A
 50
90.0
  7
ROMANC
 72
     4
 11
2769.186778933539
 21
6745.954837548879
 31
0.0
100
AcDbText
  0
ARC
  5
B91
330
1F
100
AcDbEntity
  8
SERR-INT
100
AcDbCircle
 10
2632.316860325206
 20
6073.805717684162
 30
0.0
 40
80.0
100
AcDbArc
 50
0.0
 51
90.0
  0
LINE
  5
B92
330
1F
100
AcDbEntity
  8
SERR-INT
100
AcDbLine
 10
2608.987034826706
 20
6073.805717684162
 30
0.0
 11
2815.646685823706
 21
6073.805717684162
 31
0.0
  0
ARC
  5
B93
330
1F
100
AcDbEntity
  8
SERR-INT
100
AcDbCircle
 10
2792.316860325206
 20
6073.805717684162
 30
0.0
 40
80.0
100
AcDbArc
 50
90.0
 51
180.0
  0
LINE
  5
B94
330
1F
100
AcDbEntity
  8
SERR-INT
100
AcDbLine
 10
2792.316860325206
 20
6073.805717684162
 30
0.0
 11
2792.316860325206
 21
6153.805717684163
 31
0.0
  0
LINE
  5
B95
330
1F
100
AcDbEntity
  8
SCALE
100
AcDbLine
 10
2578.725923540852
 20
6278.299868474367
 30
0.0
 11
2708.725923540852
 21
6278.299868474367
 31
0.0
  0
LINE
  5
B96
330
1F
100
AcDbEntity
  8
SERR-INT
100
AcDbLine
 10
2608.987034826706
 20
6068.805717684163
 30
0.0
 11
2815.646685823706
 21
6068.805717684163
 31
0.0
  0
LINE
  5
B97
330
1F
100
AcDbEntity
  8
MUR-EST
100
AcDbLine
 10
2568.725923540847
 20
6092.268653489547
 30
0.0
 11
2607.316860325208
 21
6092.268653489547
 31
0.0
  0
LINE
  5
B98
330
1F
100
AcDbEntity
  8
MUR-EST
100
AcDbLine
 10
2568.725923540854
 20
6062.268653489542
 30
0.0
 11
2607.316860325208
 21
6062.26865348954
 31
0.0
  0
LINE
  5
B99
330
1F
100
AcDbEntity
  8
MUR-EST
100
AcDbLine
 10
2904.802251952819
 20
6092.268653489551
 30
0.0
 11
2817.316860325208
 21
6092.268653489551
 31
0.0
  0
LINE
  5
B9A
330
1F
100
AcDbEntity
  8
MUR-EST
100
AcDbLine
 10
2904.802251952819
 20
6062.268653489543
 30
0.0
 11
2817.316860325208
 21
6062.268653489542
 31
0.0
  0
LINE
  5
B9B
330
1F
100
AcDbEntity
  8
MUR-EST
100
AcDbLine
 10
2198.725923540861
 20
6062.268653489548
 30
0.0
 11
2198.725923540861
 21
5932.268653489546
 31
0.0
  0
LINE
  5
B9C
330
1F
100
AcDbEntity
  8
MUR-EST
100
AcDbLine
 10
2208.725923540863
 20
6062.268653489548
 30
0.0
 11
2208.725923540861
 21
5932.268653489546
 31
0.0
  0
LINE
  5
B9D
330
1F
100
AcDbEntity
  8
MUR-EST
100
AcDbLine
 10
2098.725923540861
 20
6062.268653489548
 30
0.0
 11
2098.725923540861
 21
5932.268653489546
 31
0.0
  0
LINE
  5
B9E
330
1F
100
AcDbEntity
  8
MUR-EST
100
AcDbLine
 10
2088.725923540861
 20
6062.268653489548
 30
0.0
 11
2088.725923540861
 21
5932.268653489546
 31
0.0
  0
LINE
  5
B9F
330
1F
100
AcDbEntity
  8
MUR-EST
100
AcDbLine
 10
1988.725923540861
 20
6062.268653489548
 30
0.0
 11
1988.725923540861
 21
5932.268653489546
 31
0.0
  0
LINE
  5
BA0
330
1F
100
AcDbEntity
  8
MUR-EST
100
AcDbLine
 10
1978.725923540861
 20
6062.268653489548
 30
0.0
 11
1978.725923540861
 21
5932.268653489546
 31
0.0
  0
LINE
  5
BA1
330
1F
100
AcDbEntity
  8
MUR-EST
100
AcDbLine
 10
1878.725923540861
 20
6062.268653489548
 30
0.0
 11
1878.725923540861
 21
5932.268653489546
 31
0.0
  0
LINE
  5
BA2
330
1F
100
AcDbEntity
  8
MUR-EST
100
AcDbLine
 10
1868.725923540861
 20
6062.268653489548
 30
0.0
 11
1868.725923540861
 21
5932.268653489546
 31
0.0
  0
LINE
  5
BA3
330
1F
100
AcDbEntity
  8
MUR-EST
100
AcDbLine
 10
1758.725923540861
 20
6062.268653489548
 30
0.0
 11
1758.725923540864
 21
5922.268653489545
 31
0.0
  0
LINE
  5
BA4
330
1F
100
AcDbEntity
  8
MUR-EST
100
AcDbLine
 10
1768.725923540861
 20
6062.268653489548
 30
0.0
 11
1768.725923540861
 21
5932.268653489546
 31
0.0
  0
ARC
  5
BA5
330
1F
100
AcDbEntity
  8
SERR-INT
100
AcDbCircle
 10
2003.403012136041
 20
5932.202320719296
 30
0.0
 40
65.3587535363939
100
AcDbArc
 50
274.6714249119583
 51
355.6484193288895
  0
LINE
  5
BA6
330
1F
100
AcDbEntity
  8
SERR-INT
100
AcDbLine
 10
2008.725923540861
 20
5927.268653489545
 30
0.0
 11
2068.725923540861
 21
5927.268653489545
 31
0.0
  0
ARC
  5
BA7
330
1F
100
AcDbEntity
  8
SERR-INT
100
AcDbCircle
 10
2113.403012136042
 20
5932.202320719296
 30
0.0
 40
65.3587535363939
100
AcDbArc
 50
274.6714249119583
 51
355.6484193288895
  0
LINE
  5
BA8
330
1F
100
AcDbEntity
  8
SERR-INT
100
AcDbLine
 10
2118.725923540857
 20
5927.268653489545
 30
0.0
 11
2178.725923540861
 21
5927.268653489545
 31
0.0
  0
LINE
  5
BA9
330
1F
100
AcDbEntity
  8
MUR-EST
100
AcDbLine
 10
2178.725923540861
 20
5932.268653489546
 30
0.0
 11
2178.725923540861
 21
5922.268653489545
 31
0.0
  0
LINE
  5
BAA
330
1F
100
AcDbEntity
  8
MUR-EST
100
AcDbLine
 10
2178.725923540861
 20
5932.268653489546
 30
0.0
 11
2198.725923540861
 21
5932.268653489546
 31
0.0
  0
LINE
  5
BAB
330
1F
100
AcDbEntity
  8
MUR-EST
100
AcDbLine
 10
2178.725923540861
 20
5922.268653489545
 30
0.0
 11
2198.725923540861
 21
5922.268653489545
 31
0.0
  0
LINE
  5
BAC
330
1F
100
AcDbEntity
  8
MUR-EST
100
AcDbLine
 10
2068.725923540861
 20
5922.268653489545
 30
0.0
 11
2118.725923540857
 21
5922.268653489545
 31
0.0
  0
LINE
  5
BAD
330
1F
100
AcDbEntity
  8
MUR-EST
100
AcDbLine
 10
2068.725923540861
 20
5932.268653489546
 30
0.0
 11
2088.725923540861
 21
5932.268653489546
 31
0.0
  0
LINE
  5
BAE
330
1F
100
AcDbEntity
  8
SERR-INT
100
AcDbLine
 10
2118.725923540857
 20
5927.268653489548
 30
0.0
 11
2118.725923540857
 21
5867.060680595583
 31
0.0
  0
LINE
  5
BAF
330
1F
100
AcDbEntity
  8
MUR-EST
100
AcDbLine
 10
2118.725923540857
 20
5932.268653489546
 30
0.0
 11
2118.725923540857
 21
5922.268653489545
 31
0.0
  0
LINE
  5
BB0
330
1F
100
AcDbEntity
  8
MUR-EST
100
AcDbLine
 10
2098.725923540861
 20
5932.268653489546
 30
0.0
 11
2118.725923540857
 21
5932.268653489546
 31
0.0
  0
LINE
  5
BB1
330
1F
100
AcDbEntity
  8
MUR-EST
100
AcDbLine
 10
2068.725923540861
 20
5932.268653489546
 30
0.0
 11
2068.725923540861
 21
5922.268653489545
 31
0.0
  0
LINE
  5
BB2
330
1F
100
AcDbEntity
  8
MUR-EST
100
AcDbLine
 10
1768.725923540861
 20
5932.268653489546
 30
0.0
 11
1788.725923540861
 21
5932.268653489546
 31
0.0
  0
LINE
  5
BB3
330
1F
100
AcDbEntity
  8
MUR-EST
100
AcDbLine
 10
1758.725923540864
 20
5922.268653489545
 30
0.0
 11
1788.725923540861
 21
5922.268653489545
 31
0.0
  0
ARC
  5
BB4
330
1F
100
AcDbEntity
  8
SERR-INT
100
AcDbCircle
 10
1893.403012136042
 20
5932.202320719296
 30
0.0
 40
65.3587535363939
100
AcDbArc
 50
274.6714249119583
 51
355.6484193288895
  0
LINE
  5
BB5
330
1F
100
AcDbEntity
  8
SERR-INT
100
AcDbLine
 10
1898.725923540861
 20
5927.268653489545
 30
0.0
 11
1958.725923540861
 21
5927.268653489545
 31
0.0
  0
LINE
  5
BB6
330
1F
100
AcDbEntity
  8
MUR-EST
100
AcDbLine
 10
1958.725923540861
 20
5922.268653489545
 30
0.0
 11
2008.725923540861
 21
5922.268653489545
 31
0.0
  0
LINE
  5
BB7
330
1F
100
AcDbEntity
  8
MUR-EST
100
AcDbLine
 10
1958.725923540861
 20
5932.268653489546
 30
0.0
 11
1978.725923540861
 21
5932.268653489546
 31
0.0
  0
LINE
  5
BB8
330
1F
100
AcDbEntity
  8
SERR-INT
100
AcDbLine
 10
2008.725923540861
 20
5927.268653489545
 30
0.0
 11
2008.725923540861
 21
5867.060680595583
 31
0.0
  0
LINE
  5
BB9
330
1F
100
AcDbEntity
  8
MUR-EST
100
AcDbLine
 10
2008.725923540861
 20
5932.268653489546
 30
0.0
 11
2008.725923540861
 21
5922.268653489545
 31
0.0
  0
LINE
  5
BBA
330
1F
100
AcDbEntity
  8
MUR-EST
100
AcDbLine
 10
1988.725923540861
 20
5932.268653489546
 30
0.0
 11
2008.725923540861
 21
5932.268653489546
 31
0.0
  0
LINE
  5
BBB
330
1F
100
AcDbEntity
  8
MUR-EST
100
AcDbLine
 10
1958.725923540861
 20
5932.268653489546
 30
0.0
 11
1958.725923540861
 21
5922.268653489545
 31
0.0
  0
ARC
  5
BBC
330
1F
100
AcDbEntity
  8
SERR-INT
100
AcDbCircle
 10
1783.403012136042
 20
5932.202320719296
 30
0.0
 40
65.3587535363939
100
AcDbArc
 50
274.6714249119583
 51
355.6484193288895
  0
LINE
  5
BBD
330
1F
100
AcDbEntity
  8
SERR-INT
100
AcDbLine
 10
1788.725923540861
 20
5927.268653489545
 30
0.0
 11
1848.725923540862
 21
5927.268653489545
 31
0.0
  0
LINE
  5
BBE
330
1F
100
AcDbEntity
  8
SERR-INT
100
AcDbLine
 10
1898.725923540861
 20
5927.268653489545
 30
0.0
 11
1898.725923540861
 21
5867.060680595583
 31
0.0
  0
LINE
  5
BBF
330
1F
100
AcDbEntity
  8
MUR-EST
100
AcDbLine
 10
1848.725923540862
 20
5932.268653489546
 30
0.0
 11
1848.725923540862
 21
5922.268653489545
 31
0.0
  0
LINE
  5
BC0
330
1F
100
AcDbEntity
  8
MUR-EST
100
AcDbLine
 10
1848.725923540862
 20
5922.268653489545
 30
0.0
 11
1898.725923540861
 21
5922.268653489545
 31
0.0
  0
LINE
  5
BC1
330
1F
100
AcDbEntity
  8
MUR-EST
100
AcDbLine
 10
1898.725923540861
 20
5932.268653489546
 30
0.0
 11
1898.725923540861
 21
5922.268653489545
 31
0.0
  0
LINE
  5
BC2
330
1F
100
AcDbEntity
  8
MUR-EST
100
AcDbLine
 10
1848.725923540862
 20
5932.268653489546
 30
0.0
 11
1868.725923540861
 21
5932.268653489546
 31
0.0
  0
LINE
  5
BC3
330
1F
100
AcDbEntity
  8
MUR-EST
100
AcDbLine
 10
1878.725923540861
 20
5932.268653489546
 30
0.0
 11
1898.725923540861
 21
5932.268653489546
 31
0.0
  0
LINE
  5
BC4
330
1F
100
AcDbEntity
  8
SERR-INT
100
AcDbLine
 10
1788.725923540861
 20
5927.268653489545
 30
0.0
 11
1788.725923540861
 21
5867.060680595583
 31
0.0
  0
LINE
  5
BC5
330
1F
100
AcDbEntity
  8
MUR-EST
100
AcDbLine
 10
1788.725923540861
 20
5932.268653489546
 30
0.0
 11
1788.725923540861
 21
5922.268653489545
 31
0.0
  0
LINE
  5
BC6
330
1F
100
AcDbEntity
  8
MUR-EST
100
AcDbLine
 10
2208.725923540861
 20
5922.268653489545
 30
0.0
 11
2208.725923540861
 21
5772.268653489546
 31
0.0
  0
LINE
  5
BC7
330
1F
100
AcDbEntity
  8
MUR-EST
100
AcDbLine
 10
2198.725923540861
 20
5922.268653489545
 30
0.0
 11
2198.725923540861
 21
5772.268653489546
 31
0.0
  0
LINE
  5
BC8
330
1F
100
AcDbEntity
  8
SERR-INT
100
AcDbLine
 10
2228.725923540857
 20
5927.268653489545
 30
0.0
 11
2308.725923540861
 21
5927.268653489545
 31
0.0
  0
LINE
  5
BC9
330
1F
100
AcDbEntity
  8
MUR-EST
100
AcDbLine
 10
2308.725923540861
 20
5932.268653489546
 30
0.0
 11
2328.725923540847
 21
5932.268653489546
 31
0.0
  0
LINE
  5
BCA
330
1F
100
AcDbEntity
  8
MUR-EST
100
AcDbLine
 10
2308.725923540861
 20
5922.268653489545
 30
0.0
 11
2328.725923540847
 21
5922.268653489545
 31
0.0
  0
LINE
  5
BCB
330
1F
100
AcDbEntity
  8
MUR-EST
100
AcDbLine
 10
2308.725923540861
 20
5932.268653489546
 30
0.0
 11
2308.725923540861
 21
5922.268653489545
 31
0.0
  0
LINE
  5
BCC
330
1F
100
AcDbEntity
  8
MUR-EST
100
AcDbLine
 10
2228.725923540857
 20
5932.268653489546
 30
0.0
 11
2228.725923540857
 21
5922.268653489545
 31
0.0
  0
LINE
  5
BCD
330
1F
100
AcDbEntity
  8
MUR-EST
100
AcDbLine
 10
2208.725923540861
 20
5932.268653489546
 30
0.0
 11
2228.725923540857
 21
5932.268653489546
 31
0.0
  0
LINE
  5
BCE
330
1F
100
AcDbEntity
  8
MUR-EST
100
AcDbLine
 10
2208.725923540861
 20
5922.268653489545
 30
0.0
 11
2228.725923540857
 21
5922.268653489545
 31
0.0
  0
LINE
  5
BCF
330
1F
100
AcDbEntity
  8
SERR-INT
100
AcDbLine
 10
2229.00936278216
 20
5926.985214248245
 30
0.0
 11
2229.009362782153
 21
5846.985214248243
 31
0.0
  0
ARC
  5
BD0
330
1F
100
AcDbEntity
  8
SERR-INT
100
AcDbCircle
 10
2229.00936278216
 20
5926.985214248245
 30
0.0
 40
80.00000000000007
100
AcDbArc
 50
270.0
 51
0.0
  0
LINE
  5
BD1
330
1F
100
AcDbEntity
  8
SERR-INT
100
AcDbLine
 10
2338.725923540843
 20
5457.268653489546
 30
0.0
 11
2418.725923540843
 21
5457.26865348954
 31
0.0
  0
ARC
  5
BD2
330
1F
100
AcDbEntity
  8
SERR-INT
100
AcDbCircle
 10
2338.725923540843
 20
5457.268653489546
 30
0.0
 40
80.00000000000007
100
AcDbArc
 50
0.0
 51
90.0
  0
LINE
  5
BD3
330
1F
100
AcDbEntity
  8
SERR-INT
100
AcDbLine
 10
3034.802251952816
 20
5822.268653489546
 30
0.0
 11
2954.802251952814
 21
5822.26865348954
 31
0.0
  0
ARC
  5
BD4
330
1F
100
AcDbEntity
  8
SERR-INT
100
AcDbCircle
 10
3034.802251952816
 20
5822.268653489546
 30
0.0
 40
80.00000000000007
100
AcDbArc
 50
90.0
 51
180.0
  0
ARC
  5
BD5
330
1F
100
AcDbEntity
  8
SERR-INT
100
AcDbCircle
 10
3034.802251952822
 20
5457.268653489546
 30
0.0
 40
80.00000000000007
100
AcDbArc
 50
90.0
 51
180.0
  0
LINE
  5
BD6
330
1F
100
AcDbEntity
  8
SERR-INT
100
AcDbLine
 10
3034.802251952822
 20
5457.268653489546
 30
0.0
 11
2954.80225195282
 21
5457.26865348954
 31
0.0
  0
ARC
  5
BD7
330
1F
100
AcDbEntity
  8
SERR-INT
100
AcDbCircle
 10
3034.802251952822
 20
5727.268653489545
 30
0.0
 40
80.00000000000007
100
AcDbArc
 50
180.0
 51
270.0
  0
LINE
  5
BD8
330
1F
100
AcDbEntity
  8
SERR-INT
100
AcDbLine
 10
3034.802251952822
 20
5727.268653489545
 30
0.0
 11
2954.80225195282
 21
5727.268653489551
 31
0.0
  0
LWPOLYLINE
  5
BF3
330
1F
100
AcDbEntity
  8
TT
100
AcDbPolyline
 90
        4
 70
     1
 43
0.0
 10
595.4347762885809
 20
6870.308147705564
 10
9399.699551860038
 20
6870.308147705564
 10
9399.699551860038
 20
226.4387658424675
 10
595.4347762885809
 20
226.4387658424675
  0
LWPOLYLINE
  5
BF4
330
1F
100
AcDbEntity
  8
TT
100
AcDbPolyline
 90
        4
 70
     1
 43
0.0
 10
570.4347762885809
 20
6895.308147705565
 10
9424.699551860038
 20
6895.308147705565
 10
9424.699551860038
 20
201.4387658424675
 10
570.4347762885809
 20
201.4387658424675
  0
IMAGE
  5
BF9
330
1F
100
AcDbEntity
  8
TT
 92
      140
310
8C00000001000000840000000600000005000000D071B6D51A46B44090A7A6C368AF9E400000000000000000D071B6D51A46B440D5698C04775CA8400000000000000000D8D531424749BA40D5698C04775CA8400000000000000000D8D531424749BA4090A7A6C368AF9E400000000000000000D071B6D51A46B44090A7A6
310
C368AF9E400000000000000000
100
AcDbRasterImage
 90
        0
 10
5190.104823496614
 20
1963.852308849313
 30
0.0
 11
0.7515495753436918
 21
0.0
 31
0.0
 12
0.0
 22
0.7515495753436918
 32
0.0
 13
2048.0
 23
1536.0
340
BF7
 70
     7
280
     0
281
    50
282
    50
283
     0
360
BF8
 71
     1
 91
        2
 14
-0.5
 24
-0.5
 14
2047.5
 24
1535.5
  0
IMAGE
  5
BFC
330
1F
100
AcDbEntity
  8
TT
 92
      140
310
8C00000001000000840000000600000005000000D871B6D51A46B440EE3653D8A047B2400000000000000000D871B6D51A46B4406850C67BCABEB640000000000000000026E94F5A523ABA406850C67BCABEB640000000000000000026E94F5A523ABA40EE3653D8A047B2400000000000000000D871B6D51A46B440EE3653
310
D8A047B2400000000000000000
100
AcDbRasterImage
 90
        0
 10
5190.104823496621
 20
4679.628300858412
 30
0.0
 11
0.744246517117893
 21
0.0
 31
0.0
 12
0.0
 22
0.744246517117893
 32
0.0
 13
2048.0
 23
1536.0
340
BFA
 70
     7
280
     0
281
    50
282
    50
283
     0
360
BFB
 71
     1
 91
        2
 14
-0.5
 24
-0.5
 14
2047.5
 24
1535.5
  0
IMAGE
  5
BFF
330
1F
100
AcDbEntity
  8
TT
 92
      140
310
8C00000001000000840000000600000005000000D871B6D51A46B4404C43587ACFE7A9400000000000000000D871B6D51A46B4404C7DEF6ADF67B1400000000000000000B69665BD0F36BA404C7DEF6ADF67B1400000000000000000B69665BD0F36BA404C43587ACFE7A9400000000000000000D871B6D51A46B4404C4358
310
7ACFE7A9400000000000000000
100
AcDbRasterImage
 90
        0
 10
5190.104823496621
 20
3315.905230291572
 30
0.0
 11
0.7421663379978857
 21
0.0
 31
0.0
 12
0.0
 22
0.7421663379978856
 32
0.0
 13
2048.0
 23
1536.0
340
BFD
 70
     7
280
     0
281
    50
282
    50
283
     0
360
BFE
 71
     1
 91
        2
 14
-0.5
 24
-0.5
 14
2047.5
 24
1535.5
  0
LINE
  5
C0D
330
1F
100
AcDbEntity
  8
TT
  6
HIDDEN
 48
5.0
100
AcDbLine
 10
5190.104823496621
 20
3885.888977873948
 30
0.0
 11
3548.203741276364
 21
3395.242796672359
 31
0.0
  0
LINE
  5
C0E
330
1F
100
AcDbEntity
  8
TT
  6
HIDDEN
 48
5.0
100
AcDbLine
 10
5190.104823496621
 20
5251.209626004953
 30
0.0
 11
3200.987342138692
 21
3395.242796672359
 31
0.0
  0
LINE
  5
C0F
330
1F
100
AcDbEntity
  8
TT
  6
HIDDEN
 48
5.0
100
AcDbLine
 10
5190.104823496614
 20
2541.042382713268
 30
0.0
 11
2693.704599614124
 21
2696.442891266495
 31
0.0
  0
LINE
  5
C39
330
1F
100
AcDbEntity
  8
VISTE
100
AcDbLine
 10
3485.739726648978
 20
3397.859114500874
 30
0.0
 11
3548.203741264717
 21
3395.242796688485
 31
0.0
  0
LINE
  5
C3A
330
1F
100
AcDbEntity
  8
VISTE
100
AcDbLine
 10
3548.203741264717
 20
3395.242796688485
 30
0.0
 11
3519.237531659126
 21
3450.646379062285
 31
0.0
  0
CIRCLE
  5
C3B
330
1F
100
AcDbEntity
  8
VISTE
100
AcDbCircle
 10
3548.203741276364
 20
3395.242796672359
 30
0.0
 40
7.124514393508434
  0
HATCH
  5
C3C
330
1F
100
AcDbEntity
  8
VISTE
100
AcDbHatch
 10
0.0
 20
0.0
 30
0.0
210
0.0
220
0.0
230
1.0
  2
ANSI38
 70
     0
 71
     0
 91
        2
 92
        7
 72
     1
 73
     1
 93
        5
 10
3548.20374128493
 20
3395.242796694008
 42
0.0
 10
3541.085468190459
 20
3395.540946989226
 42
0.0772910848649159
 10
3541.331089483325
 20
3393.365201754664
 42
1.0
 10
3555.076393069402
 20
3397.120391590053
 42
0.4786977624093297
 10
3544.902810464785
 20
3401.556477141968
 42
0.0
 97
        0
 92
       22
 72
     1
 73
     1
 93
        3
 10
3544.902810467031
 20
3401.55647714258
 42
0.2679491916360007
 10
3541.085468190459
 20
3395.540946989226
 42
0.0
 10
3548.203741264508
 20
3395.242796698083
 42
0.0
 97
        0
 75
     0
 76
     1
 52
-182.3984433267211
 41
9.999999999999998
 77
     0
 78
     2
 53
222.6015566732788
 43
16028945.12998579
 44
49272706.64013592
 45
0.8461199606364219
 46
-0.920098370943357
 79
     0
 53
312.6015566732788
 43
16028945.12998579
 44
49272706.64013592
 45
2.6123382922162
 46
-0.9940767812502919
 79
     2
 49
3.124999999999998
 49
-1.874999999999999
 47
0.0383932725949472
 98
        2
 10
3549.571926775764
 20
3394.998785553235
 10
3544.325804987408
 20
3398.292658994002
  0
HATCH
  5
C3D
330
1F
100
AcDbEntity
  8
VISTE
100
AcDbHatch
 10
0.0
 20
0.0
 30
0.0
210
0.0
220
0.0
230
1.0
  2
ANSI38
 70
     0
 71
     0
 91
        2
 92
        7
 72
     1
 73
     1
 93
        5
 10
3200.393131977089
 20
3394.420913798198
 42
0.0
 10
3199.750970464133
 20
3401.516428863174
 42
0.0772910848649159
 10
3197.62654291979
 20
3400.986330047789
 42
1.0
 10
3203.159720989208
 20
3387.855497559887
 42
0.4786977624093297
 10
3206.216947489186
 20
3398.524799512906
 42
0.0
 97
        0
 92
       22
 72
     1
 73
     1
 93
        3
 10
3206.21694749009
 20
3398.524799510761
 42
0.2679491916360007
 10
3199.750970464133
 20
3401.516428863174
 42
0.0
 10
3200.393131978437
 20
3394.420913818979
 42
0.0
 97
        0
 75
     0
 76
     1
 52
-264.8286796962363
 41
9.999999999999998
 77
     0
 78
     2
 53
140.1713203037635
 43
50954217.60921017
 44
-9391936.167126765
 45
-0.8006177344184393
 46
-0.9599537714570868
 79
     0
 53
230.1713203037636
 43
50954217.60921017
 44
-9391936.167126765
 45
-0.6412816973797919
 46
-2.720525277332612
 79
     2
 49
3.124999999999998
 49
-1.874999999999999
 47
0.0383932725949472
 98
        2
 10
3200.331482912363
 20
3393.032507385448
 10
3202.905562046912
 20
3398.666823020123
  0
CIRCLE
  5
C3E
330
1F
100
AcDbEntity
  8
VISTE
100
AcDbCircle
 10
3200.3931319545
 20
3394.420913803839
 30
0.0
 40
7.124514393508434
  0
LINE
  5
C3F
330
1F
100
AcDbEntity
  8
VISTE
100
AcDbLine
 10
3200.393131968951
 20
3394.420913817508
 30
0.0
 11
3251.498069143669
 21
3430.433184436473
 31
0.0
  0
LINE
  5
C40
330
1F
100
AcDbEntity
  8
VISTE
100
AcDbLine
 10
3194.758059345461
 20
3456.685222994906
 30
0.0
 11
3200.393131968951
 21
3394.420913817508
 31
0.0
  0
LINE
  5
C41
330
1F
100
AcDbEntity
  8
VISTE
100
AcDbLine
 10
2662.491450888347
 20
2750.612417653317
 30
0.0
 11
2693.704599621517
 21
2696.442891284963
 31
0.0
  0
LINE
  5
C42
330
1F
100
AcDbEntity
  8
VISTE
100
AcDbLine
 10
2693.704599621517
 20
2696.442891284963
 30
0.0
 11
2725.010211197391
 21
2750.559034187297
 31
0.0
  0
CIRCLE
  5
C43
330
1F
100
AcDbEntity
  8
VISTE
100
AcDbCircle
 10
2693.704599614124
 20
2696.442891266495
 30
0.0
 40
7.124514393508434
  0
HATCH
  5
C44
330
1F
100
AcDbEntity
  8
VISTE
100
AcDbHatch
 10
0.0
 20
0.0
 30
0.0
210
0.0
220
0.0
230
1.0
  2
ANSI38
 70
     0
 71
     0
 91
        2
 92
        7
 72
     1
 73
     1
 93
        5
 10
2693.704599636998
 20
2696.442891270841
 42
0.0
 10
2690.147612170938
 20
2702.615941214939
 42
0.0772910848649159
 10
2688.440970981177
 20
2701.244236802667
 42
1.0
 10
2698.968228247072
 20
2691.641545730322
 42
0.4786977624093297
 10
2697.272123947135
 20
2702.609857735394
 42
0.0
 97
        0
 92
       22
 72
     1
 73
     1
 93
        3
 10
2697.272123948855
 20
2702.609857733826
 42
0.2679491916360007
 10
2690.147612170938
 20
2702.615941214939
 42
0.0
 10
2693.704599629513
 20
2696.442891290275
 42
0.0
 97
        0
 75
     0
 76
     1
 52
-240.0489236552347
 41
9.999999999999998
 77
     0
 78
     2
 53
164.9510763447652
 43
50200305.09887637
 44
12827601.99891179
 45
-0.3245546678722346
 46
-1.207130592588201
 79
     0
 53
254.9510763447653
 43
50200305.09887637
 44
12827601.99891179
 45
0.5580212568437326
 46
-2.738815853048637
 79
     2
 49
3.124999999999997
 49
-1.874999999999998
 47
0.0383932725949472
 98
        2
 10
2694.230551479646
 20
2695.156482458153
 10
2694.206105752726
 20
2701.350899175528
  0
TEXT
  5
C46
330
1F
100
AcDbEntity
  8
QUOTE-ANT
100
AcDbText
 10
4617.455969040013
 20
7435.944975894219
 30
0.0
 40
300.0
  1
TAV. 7
  7
ROMANS
100
AcDbText
  0
VIEWPORT
  5
BE3
330
BDC
100
AcDbEntity
 67
     1
  8
0
100
AcDbViewport
 10
3498.710409878436
 20
4524.490709530981
 30
0.0
 40
19655.36310837557
 41
11181.44210476465
 68
     1
 69
     1
 12
3498.710409878436
 22
4524.490709530981
 13
0.0
 23
0.0
 14
10.0
 24
10.0
 15
10.0
 25
10.0
 16
0.0
 26
0.0
 36
1.0
 17
0.0
 27
0.0
 37
0.0
 42
50.0
 43
0.0
 44
0.0
 45
11181.44210476465
 50
0.0
 51
0.0
 72
  1000
 90
    32800
  1

281
     0
 71
     1
 74
     0
110
0.0
120
0.0
130
0.0
111
1.0
121
0.0
131
0.0
112
0.0
122
1.0
132
0.0
 79
     0
146
0.0
170
     0
  0
VIEWPORT
  5
BE5
330
BDC
100
AcDbEntity
 67
     1
  8
TT
100
AcDbViewport
 10
2828.9248752594
 20
4075.218319892883
 30
0.0
 40
4526.279800415038
 41
6520.349311828613
 68
     2
 69
     2
 12
2300.468584018648
 22
3552.892973997174
 13
0.0
 23
0.0
 14
10.0
 24
10.0
 15
10.0
 25
10.0
 16
0.0
 26
0.0
 36
1.0
 17
0.0
 27
0.0
 37
0.0
 42
50.0
 43
0.0
 44
0.0
 45
6743.243093320706
 50
0.0
 51
0.0
 72
  1000
 90
    32864
  1

281
     0
 71
     1
 74
     0
110
0.0
120
0.0
130
0.0
111
1.0
121
0.0
131
0.0
112
0.0
122
1.0
132
0.0
 79
     0
146
0.0
170
     0
  0
ENDSEC
  0
SECTION
  2
OBJECTS
  0
DICTIONARY
  5
C
330
0
100
AcDbDictionary
281
     1
  3
ACAD_COLOR
350
3BA
  3
ACAD_GROUP
350
D
  3
ACAD_IMAGE_DICT
350
BF5
  3
ACAD_IMAGE_VARS
350
BF6
  3
ACAD_LAYOUT
350
1A
  3
ACAD_MATERIAL
350
3B9
  3
ACAD_MLINESTYLE
350
17
  3
ACAD_PLOTSETTINGS
350
19
  3
ACAD_PLOTSTYLENAME
350
E
  3
AcDbVariableDictionary
350
27B
  0
IMAGEDEF_REACTOR
  5
BF8
330
BF9
100
AcDbRasterImageDefReactor
 90
        2
330
BF9
  0
IMAGEDEF_REACTOR
  5
BFB
330
BFC
100
AcDbRasterImageDefReactor
 90
        2
330
BFC
  0
IMAGEDEF_REACTOR
  5
BFE
330
BFF
100
AcDbRasterImageDefReactor
 90
        2
330
BFF
  0
DICTIONARY
  5
3BA
102
{ACAD_REACTORS
330
C
102
}
330
C
100
AcDbDictionary
281
     1
  0
DICTIONARY
  5
D
102
{ACAD_REACTORS
330
C
102
}
330
C
100
AcDbDictionary
281
     1
  0
DICTIONARY
  5
BF5
102
{ACAD_REACTORS
330
C
102
}
330
C
100
AcDbDictionary
281
     1
  3
DSC00018
350
BF7
  3
DSC00026
350
BFA
  3
DSC00032
350
BFD
  0
RASTERVARIABLES
  5
BF6
102
{ACAD_REACTORS
330
C
102
}
330
C
100
AcDbRasterVariables
 90
        0
 70
     1
 71
     1
 72
     1
  0
DICTIONARY
  5
1A
102
{ACAD_REACTORS
330
C
102
}
330
C
100
AcDbDictionary
281
     1
  3
Layout1
350
BDD
  3
Model
350
22
  0
DICTIONARY
  5
3B9
102
{ACAD_REACTORS
330
C
102
}
330
C
100
AcDbDictionary
281
     1
  0
DICTIONARY
  5
17
102
{ACAD_REACTORS
330
C
102
}
330
C
100
AcDbDictionary
281
     1
  3
Standard
350
18
  0
DICTIONARY
  5
19
102
{ACAD_REACTORS
330
C
102
}
330
C
100
AcDbDictionary
281
     1
  3
ISO A3 title block - no output device
350
D1
  0
ACDBDICTIONARYWDFLT
  5
E
102
{ACAD_REACTORS
330
C
102
}
330
C
100
AcDbDictionary
281
     1
  3
Normal
350
F
100
AcDbDictionaryWithDefault
340
F
  0
DICTIONARY
  5
27B
102
{ACAD_REACTORS
330
C
102
}
330
C
100
AcDbDictionary
281
     1
  3
DIMASSOC
350
3B7
  3
HIDETEXT
350
3B6
  3
SORTENTS
350
27C
  0
IMAGEDEF
  5
BF7
102
{ACAD_REACTORS
330
BF5
330
BF8
102
}
330
BF5
100
AcDbRasterImageDef
 90
        0
  1
C:\Documents and Settings\u215625\Desktop\foto millio42\141105\DSC00018.JPG
 10
2048.0
 20
1536.0
 11
0.00048828125
 21
0.00048828125
280
     1
281
     0
  0
IMAGEDEF
  5
BFA
102
{ACAD_REACTORS
330
BF5
330
BFB
102
}
330
BF5
100
AcDbRasterImageDef
 90
        0
  1
C:\Documents and Settings\u215625\Desktop\foto millio42\141105\DSC00026.JPG
 10
2048.0
 20
1536.0
 11
0.00048828125
 21
0.00048828125
280
     1
281
     0
  0
IMAGEDEF
  5
BFD
102
{ACAD_REACTORS
330
BF5
330
BFE
102
}
330
BF5
100
AcDbRasterImageDef
 90
        0
  1
C:\Documents and Settings\u215625\Desktop\foto millio42\141105\DSC00032.JPG
 10
2048.0
 20
1536.0
 11
0.00048828125
 21
0.00048828125
280
     1
281
     0
  0
LAYOUT
  5
BDD
102
{ACAD_REACTORS
330
1A
102
}
330
1A
100
AcDbPlotSettings
  1

  2
Lexmark Optra W810
  4
A3
  6

 40
6.805083274841308
 41
5.281085491180419
 42
7.228424072265625
 43
7.14373779296875
 44
296.9259948730469
 45
419.9466552734374
 46
0.0
 47
0.0
 48
0.0
 49
0.0
140
0.0
141
0.0
142
1.0
143
20.0
 70
   672
 72
     1
 73
     0
 74
     5
  7
monochrome.ctb
 75
     0
147
1.0
 76
     1
 77
     2
 78
   300
148
0.0
149
0.0
100
AcDbLayout
  1
Layout1
 70
     1
 71
     1
 10
-136.1016654968262
 20
-105.6217098236084
 11
5802.418231964111
 21
8293.311395645142
 12
0.0
 22
0.0
 32
0.0
 14
565.7849750518798
 24
815.0436639785766
 34
0.0
 15
5092.064775466919
 25
7335.39297580719
 35
0.0
146
0.0
 13
0.0
 23
0.0
 33
0.0
 16
1.0
 26
0.0
 36
0.0
 17
0.0
 27
1.0
 37
0.0
 76
     0
330
BDC
331
BE3
  0
LAYOUT
  5
22
102
{ACAD_REACTORS
330
1A
102
}
330
1A
100
AcDbPlotSettings
  1

  2
\\wqt02622\HP
  4
A3
  6

 40
6.043083190917968
 41
13.4937515258789
 42
6.043060302734375
 43
3.67242431640625
 44
297.0106506347656
 45
419.9466552734374
 46
0.0
 47
12.95
 48
570.4347762885809
 49
201.4387658424675
140
9424.699551860038
141
6895.308147705565
142
1.0
143
23.4934841127859
 70
 11956
 72
     1
 73
     1
 74
     4
  7
monochrome.ctb
 75
     0
147
0.0425649935615879
 76
     0
 77
     2
 78
   150
148
-570.4347762885809
149
-201.4387658424675
100
AcDbLayout
  1
Model
 70
     1
 71
     0
 10
0.0
 20
0.0
 11
12.0
 21
9.0
 12
0.0
 22
0.0
 32
0.0
 14
0.0
 24
0.0
 34
0.0
 15
0.0
 25
0.0
 35
0.0
146
0.0
 13
0.0
 23
0.0
 33
0.0
 16
1.0
 26
0.0
 36
0.0
 17
0.0
 27
1.0
 37
0.0
 76
     0
330
1F
  0
MLINESTYLE
  5
18
102
{ACAD_REACTORS
330
17
102
}
330
17
100
AcDbMlineStyle
  2
STANDARD
 70
     0
  3

 62
   256
 51
90.0
 52
90.0
 71
     2
 49
0.5
 62
   256
  6
BYLAYER
 49
-0.5
 62
   256
  6
BYLAYER
  0
PLOTSETTINGS
  5
D1
102
{ACAD_REACTORS
330
19
102
}
330
19
100
AcDbPlotSettings
  1
ISO A3 title block - no output device
  2
None
  4
ISO_A3_(297.00_x_420.00_MM)
  6

 40
7.549999999999999
 41
20.05
 42
7.549999999999999
 43
20.05
 44
297.0
 45
420.0
 46
-7.559999999999999
 47
-20.06
 48
0.0
 49
0.0
140
0.0
141
0.0
142
1.0
143
1.0
 70
   692
 72
     1
 73
     1
 74
     1
  7

 75
    16
147
1.0
 76
     0
 77
     2
 78
   300
148
0.0128164049386896
149
0.0090630292066862
  0
ACDBPLACEHOLDER
  5
F
102
{ACAD_REACTORS
330
E
102
}
330
E
  0
DICTIONARYVAR
  5
3B7
102
{ACAD_REACTORS
330
27B
102
}
330
27B
100
DictionaryVariables
280
     0
  1
2
  0
DICTIONARYVAR
  5
3B6
102
{ACAD_REACTORS
330
27B
102
}
330
27B
100
DictionaryVariables
280
     0
  1
1
  0
DICTIONARYVAR
  5
27C
102
{ACAD_REACTORS
330
27B
102
}
330
27B
100
DictionaryVariables
280
     0
  1
96
  0
ENDSEC
  0
EOF
