  0
SECTION
  2
HEADER
  9
$ACADVER
  1
AC1018
  9
$ACADMAINTVER
 70
     2
  9
$DWGCODEPAGE
  3
ANSI_1252
  9
$INSBASE
 10
0.0
 20
0.0
 30
0.0
  9
$EXTMIN
 10
392.492607116259
 20
427.1439255760269
 30
0.0
  9
$EXTMAX
 10
7541.986253304371
 20
5866.919203985244
 30
0.0
  9
$LIMMIN
 10
0.0
 20
0.0
  9
$LIMMAX
 10
420.0
 20
297.0
  9
$ORTHOMODE
 70
     0
  9
$REGENMODE
 70
     1
  9
$FILLMODE
 70
     1
  9
$QTEXTMODE
 70
     0
  9
$MIRRTEXT
 70
     0
  9
$LTSCALE
 40
1.0
  9
$ATTMODE
 70
     1
  9
$TEXTSIZE
 40
2.5
  9
$TRACEWID
 40
1.0
  9
$TEXTSTYLE
  7
Standard
  9
$CLAYER
  8
TT
  9
$CELTYPE
  6
ByLayer
  9
$CECOLOR
 62
   256
  9
$CELTSCALE
 40
1.0
  9
$DISPSILH
 70
     0
  9
$DIMSCALE
 40
1.0
  9
$DIMASZ
 40
2.5
  9
$DIMEXO
 40
0.625
  9
$DIMDLI
 40
3.75
  9
$DIMRND
 40
0.0
  9
$DIMDLE
 40
0.0
  9
$DIMEXE
 40
1.25
  9
$DIMTP
 40
0.0
  9
$DIMTM
 40
0.0
  9
$DIMTXT
 40
2.5
  9
$DIMCEN
 40
2.5
  9
$DIMTSZ
 40
0.0
  9
$DIMTOL
 70
     0
  9
$DIMLIM
 70
     0
  9
$DIMTIH
 70
     0
  9
$DIMTOH
 70
     0
  9
$DIMSE1
 70
     0
  9
$DIMSE2
 70
     0
  9
$DIMTAD
 70
     1
  9
$DIMZIN
 70
     8
  9
$DIMBLK
  1

  9
$DIMASO
 70
     1
  9
$DIMSHO
 70
     1
  9
$DIMPOST
  1

  9
$DIMAPOST
  1

  9
$DIMALT
 70
     0
  9
$DIMALTD
 70
     3
  9
$DIMALTF
 40
0.03937007874016
  9
$DIMLFAC
 40
1.0
  9
$DIMTOFL
 70
     1
  9
$DIMTVP
 40
0.0
  9
$DIMTIX
 70
     0
  9
$DIMSOXD
 70
     0
  9
$DIMSAH
 70
     0
  9
$DIMBLK1
  1

  9
$DIMBLK2
  1

  9
$DIMSTYLE
  2
ISO-25
  9
$DIMCLRD
 70
     0
  9
$DIMCLRE
 70
     0
  9
$DIMCLRT
 70
     0
  9
$DIMTFAC
 40
1.0
  9
$DIMGAP
 40
0.625
  9
$DIMJUST
 70
     0
  9
$DIMSD1
 70
     0
  9
$DIMSD2
 70
     0
  9
$DIMTOLJ
 70
     0
  9
$DIMTZIN
 70
     8
  9
$DIMALTZ
 70
     0
  9
$DIMALTTZ
 70
     0
  9
$DIMUPT
 70
     0
  9
$DIMDEC
 70
     2
  9
$DIMTDEC
 70
     2
  9
$DIMALTU
 70
     2
  9
$DIMALTTD
 70
     3
  9
$DIMTXSTY
  7
Standard
  9
$DIMAUNIT
 70
     0
  9
$DIMADEC
 70
     0
  9
$DIMALTRND
 40
0.0
  9
$DIMAZIN
 70
     0
  9
$DIMDSEP
 70
    44
  9
$DIMATFIT
 70
     3
  9
$DIMFRAC
 70
     0
  9
$DIMLDRBLK
  1

  9
$DIMLUNIT
 70
     2
  9
$DIMLWD
 70
    -2
  9
$DIMLWE
 70
    -2
  9
$DIMTMOVE
 70
     0
  9
$LUNITS
 70
     2
  9
$LUPREC
 70
     4
  9
$SKETCHINC
 40
1.0
  9
$FILLETRAD
 40
0.0
  9
$AUNITS
 70
     0
  9
$AUPREC
 70
     0
  9
$MENU
  1
.
  9
$ELEVATION
 40
0.0
  9
$PELEVATION
 40
0.0
  9
$THICKNESS
 40
0.0
  9
$LIMCHECK
 70
     0
  9
$CHAMFERA
 40
0.0
  9
$CHAMFERB
 40
0.0
  9
$CHAMFERC
 40
0.0
  9
$CHAMFERD
 40
0.0
  9
$SKPOLY
 70
     0
  9
$TDCREATE
 40
2453706.624531609
  9
$TDUCREATE
 40
2453706.582864942
  9
$TDUPDATE
 40
2453801.507136135
  9
$TDUUPDATE
 40
2453801.465469467
  9
$TDINDWG
 40
0.0829669560
  9
$TDUSRTIMER
 40
0.0829662269
  9
$USRTIMER
 70
     1
  9
$ANGBASE
 50
0.0
  9
$ANGDIR
 70
     0
  9
$PDMODE
 70
     0
  9
$PDSIZE
 40
0.0
  9
$PLINEWID
 40
0.0
  9
$SPLFRAME
 70
     0
  9
$SPLINETYPE
 70
     6
  9
$SPLINESEGS
 70
     8
  9
$HANDSEED
  5
95B
  9
$SURFTAB1
 70
     6
  9
$SURFTAB2
 70
     6
  9
$SURFTYPE
 70
     6
  9
$SURFU
 70
     6
  9
$SURFV
 70
     6
  9
$UCSBASE
  2

  9
$UCSNAME
  2

  9
$UCSORG
 10
0.0
 20
0.0
 30
0.0
  9
$UCSXDIR
 10
1.0
 20
0.0
 30
0.0
  9
$UCSYDIR
 10
0.0
 20
1.0
 30
0.0
  9
$UCSORTHOREF
  2

  9
$UCSORTHOVIEW
 70
     0
  9
$UCSORGTOP
 10
0.0
 20
0.0
 30
0.0
  9
$UCSORGBOTTOM
 10
0.0
 20
0.0
 30
0.0
  9
$UCSORGLEFT
 10
0.0
 20
0.0
 30
0.0
  9
$UCSORGRIGHT
 10
0.0
 20
0.0
 30
0.0
  9
$UCSORGFRONT
 10
0.0
 20
0.0
 30
0.0
  9
$UCSORGBACK
 10
0.0
 20
0.0
 30
0.0
  9
$PUCSBASE
  2

  9
$PUCSNAME
  2

  9
$PUCSORG
 10
0.0
 20
0.0
 30
0.0
  9
$PUCSXDIR
 10
1.0
 20
0.0
 30
0.0
  9
$PUCSYDIR
 10
0.0
 20
1.0
 30
0.0
  9
$PUCSORTHOREF
  2

  9
$PUCSORTHOVIEW
 70
     0
  9
$PUCSORGTOP
 10
0.0
 20
0.0
 30
0.0
  9
$PUCSORGBOTTOM
 10
0.0
 20
0.0
 30
0.0
  9
$PUCSORGLEFT
 10
0.0
 20
0.0
 30
0.0
  9
$PUCSORGRIGHT
 10
0.0
 20
0.0
 30
0.0
  9
$PUCSORGFRONT
 10
0.0
 20
0.0
 30
0.0
  9
$PUCSORGBACK
 10
0.0
 20
0.0
 30
0.0
  9
$USERI1
 70
     0
  9
$USERI2
 70
     0
  9
$USERI3
 70
     0
  9
$USERI4
 70
     0
  9
$USERI5
 70
     0
  9
$USERR1
 40
0.0
  9
$USERR2
 40
0.0
  9
$USERR3
 40
0.0
  9
$USERR4
 40
0.0
  9
$USERR5
 40
0.0
  9
$WORLDVIEW
 70
     1
  9
$SHADEDGE
 70
     3
  9
$SHADEDIF
 70
    70
  9
$TILEMODE
 70
     1
  9
$MAXACTVP
 70
    64
  9
$PINSBASE
 10
0.0
 20
0.0
 30
0.0
  9
$PLIMCHECK
 70
     0
  9
$PEXTMIN
 10
-0.0076656078521182
 20
-0.0090630484138501
 30
-0.0015258207003583
  9
$PEXTMAX
 10
210.0064092187328
 20
297.0096938633153
 30
0.0000000349246037
  9
$PLIMMIN
 10
-0.0012573670138805
 20
0.0006294318843736
  9
$PLIMMAX
 10
209.9987426329861
 20
297.0006294318844
  9
$UNITMODE
 70
     0
  9
$VISRETAIN
 70
     1
  9
$PLINEGEN
 70
     0
  9
$PSLTSCALE
 70
     1
  9
$TREEDEPTH
 70
  3020
  9
$CMLSTYLE
  2
Standard
  9
$CMLJUST
 70
     0
  9
$CMLSCALE
 40
20.0
  9
$PROXYGRAPHICS
 70
     1
  9
$MEASUREMENT
 70
     1
  9
$CELWEIGHT
370
    -1
  9
$ENDCAPS
280
     0
  9
$JOINSTYLE
280
     0
  9
$LWDISPLAY
290
     0
  9
$INSUNITS
 70
     4
  9
$HYPERLINKBASE
  1

  9
$STYLESHEET
  1
monochrome.ctb
  9
$XEDIT
290
     1
  9
$CEPSNTYPE
380
     0
  9
$PSTYLEMODE
290
     1
  9
$FINGERPRINTGUID
  2
{82FD4BA1-A590-11D2-9A33-0060089B3A3F}
  9
$VERSIONGUID
  2
{661B7BE5-79C6-40E1-905C-77B789CDFA30}
  9
$EXTNAMES
290
     1
  9
$PSVPSCALE
 40
0.0
  9
$OLESTARTUP
290
     0
  9
$SORTENTS
280
   127
  9
$INDEXCTL
280
     0
  9
$HIDETEXT
280
     1
  9
$XCLIPFRAME
290
     0
  9
$HALOGAP
280
     0
  9
$OBSCOLOR
 70
   257
  9
$OBSLTYPE
280
     0
  9
$INTERSECTIONDISPLAY
280
     0
  9
$INTERSECTIONCOLOR
 70
   257
  9
$DIMASSOC
280
     2
  9
$PROJECTNAME
  1

  0
ENDSEC
  0
SECTION
  2
CLASSES
  0
CLASS
  1
ACDBDICTIONARYWDFLT
  2
AcDbDictionaryWithDefault
  3
ObjectDBX Classes
 90
        0
 91
        1
280
     0
281
     0
  0
CLASS
  1
PLOTSETTINGS
  2
AcDbPlotSettings
  3
ObjectDBX Classes
 90
        0
 91
        1
280
     0
281
     0
  0
CLASS
  1
DICTIONARYVAR
  2
AcDbDictionaryVar
  3
ObjectDBX Classes
 90
        0
 91
        2
280
     0
281
     0
  0
CLASS
  1
RASTERVARIABLES
  2
AcDbRasterVariables
  3
ISM
 90
        0
 91
        1
280
     0
281
     0
  0
CLASS
  1
IMAGEDEF
  2
AcDbRasterImageDef
  3
ISM
 90
        0
 91
        3
280
     0
281
     0
  0
CLASS
  1
IMAGEDEF_REACTOR
  2
AcDbRasterImageDefReactor
  3
ISM
 90
        1
 91
        3
280
     0
281
     0
  0
CLASS
  1
IMAGE
  2
AcDbRasterImage
  3
ISM
 90
      127
 91
        3
280
     0
281
     1
  0
ENDSEC
  0
SECTION
  2
TABLES
  0
TABLE
  2
VPORT
  5
8
330
0
100
AcDbSymbolTable
 70
     2
  0
VPORT
  5
95A
330
8
100
AcDbSymbolTableRecord
100
AcDbViewportTableRecord
  2
*Active
 70
     0
 10
0.0
 20
0.0
 11
1.0
 21
1.0
 12
6612.523528423169
 22
2927.409162000482
 13
0.0
 23
0.0
 14
10.0
 24
10.0
 15
10.0
 25
10.0
 16
0.0
 26
0.0
 36
1.0
 17
0.0
 27
0.0
 37
0.0
 40
8284.582541697329
 41
1.757855822550831
 42
50.0
 43
0.0
 44
0.0
 50
0.0
 51
0.0
 71
     0
 72
  1000
 73
     1
 74
     3
 75
     0
 76
     0
 77
     0
 78
     0
281
     0
 65
     1
110
0.0
120
0.0
130
0.0
111
1.0
121
0.0
131
0.0
112
0.0
122
1.0
132
0.0
 79
     0
146
0.0
  0
ENDTAB
  0
TABLE
  2
LTYPE
  5
5
330
0
100
AcDbSymbolTable
 70
     4
  0
LTYPE
  5
14
330
5
100
AcDbSymbolTableRecord
100
AcDbLinetypeTableRecord
  2
ByBlock
 70
     0
  3

 72
    65
 73
     0
 40
0.0
  0
LTYPE
  5
15
330
5
100
AcDbSymbolTableRecord
100
AcDbLinetypeTableRecord
  2
ByLayer
 70
     0
  3

 72
    65
 73
     0
 40
0.0
  0
LTYPE
  5
16
330
5
100
AcDbSymbolTableRecord
100
AcDbLinetypeTableRecord
  2
Continuous
 70
     0
  3
Solid line
 72
    65
 73
     0
 40
0.0
  0
LTYPE
  5
143
330
5
100
AcDbSymbolTableRecord
100
AcDbLinetypeTableRecord
  2
DASHDOT
 70
     0
  3
__ . __ . __ . __ . __ . __ . __ . __ . __ . __
 72
    65
 73
     4
 40
1.0
 49
0.5
 74
     0
 49
-0.25
 74
     0
 49
0.0
 74
     0
 49
-0.25
 74
     0
  0
LTYPE
  5
144
330
5
100
AcDbSymbolTableRecord
100
AcDbLinetypeTableRecord
  2
DASHED
 70
     0
  3
__ __ __ __ __ __ __ __ __ __ __ __ __ __ __ __
 72
    65
 73
     2
 40
0.75
 49
0.5
 74
     0
 49
-0.25
 74
     0
  0
LTYPE
  5
8FA
330
5
100
AcDbSymbolTableRecord
100
AcDbLinetypeTableRecord
  2
HIDDEN
 70
     0
  3
Hidden __ __ __ __ __ __ __ __ __ __ __ __ __ _
 72
    65
 73
     2
 40
9.524999999999998
 49
6.349999999999999
 74
     0
 49
-3.174999999999999
 74
     0
  0
ENDTAB
  0
TABLE
  2
LAYER
  5
2
330
0
100
AcDbSymbolTable
 70
    24
  0
LAYER
  5
10
330
2
100
AcDbSymbolTableRecord
100
AcDbLayerTableRecord
  2
0
 70
     0
 62
     7
  6
Continuous
370
    -3
390
F
  0
LAYER
  5
33
330
2
100
AcDbSymbolTableRecord
100
AcDbLayerTableRecord
  2
FRAME 070
 70
     0
 62
     5
  6
Continuous
370
    -3
390
F
  0
LAYER
  5
36
330
2
100
AcDbSymbolTableRecord
100
AcDbLayerTableRecord
  2
FRAME 050
 70
     0
 62
     6
  6
Continuous
370
    -3
390
F
  0
LAYER
  5
3E
330
2
100
AcDbSymbolTableRecord
100
AcDbLayerTableRecord
  2
FRAME 025
 70
     0
 62
     7
  6
Continuous
370
    -3
390
F
  0
LAYER
  5
43
330
2
100
AcDbSymbolTableRecord
100
AcDbLayerTableRecord
  2
FRAME 200
 70
     0
 62
     8
  6
Continuous
370
    -3
390
F
  0
LAYER
  5
CC
330
2
100
AcDbSymbolTableRecord
100
AcDbLayerTableRecord
  2
Title Block
 70
     0
 62
     7
  6
Continuous
370
    -3
390
F
  0
LAYER
  5
CD
330
2
100
AcDbSymbolTableRecord
100
AcDbLayerTableRecord
  2
Viewport
 70
     0
 62
     7
  6
Continuous
370
    -3
390
F
  0
LAYER
  5
145
330
2
100
AcDbSymbolTableRecord
100
AcDbLayerTableRecord
  2
SCALE
 70
     0
 62
     1
  6
Continuous
370
    15
390
F
  0
LAYER
  5
146
330
2
100
AcDbSymbolTableRecord
100
AcDbLayerTableRecord
  2
SERR-INT
 70
     0
 62
     1
  6
Continuous
370
    15
390
F
  0
LAYER
  5
147
330
2
100
AcDbSymbolTableRecord
100
AcDbLayerTableRecord
  2
SERR-EST
 70
     0
 62
     1
  6
Continuous
370
    15
390
F
  0
LAYER
  5
148
330
2
100
AcDbSymbolTableRecord
100
AcDbLayerTableRecord
  2
ASSI-PIL
 70
     0
 62
     1
  6
Continuous
370
    15
390
F
  0
LAYER
  5
149
330
2
100
AcDbSymbolTableRecord
100
AcDbLayerTableRecord
  2
CANNE
 70
     0
 62
     1
  6
Continuous
370
    15
390
F
  0
LAYER
  5
14A
330
2
100
AcDbSymbolTableRecord
100
AcDbLayerTableRecord
  2
DEST-LOC
 70
     0
 62
     2
  6
Continuous
370
    15
390
F
  0
LAYER
  5
14B
330
2
100
AcDbSymbolTableRecord
100
AcDbLayerTableRecord
  2
QUOTE-ANT
 70
     0
 62
     1
  6
Continuous
370
    15
390
F
  0
LAYER
  5
14C
330
2
100
AcDbSymbolTableRecord
100
AcDbLayerTableRecord
  2
SCRITTE-VARIE
 70
     0
 62
     3
  6
Continuous
370
    15
390
F
  0
LAYER
  5
14D
330
2
100
AcDbSymbolTableRecord
100
AcDbLayerTableRecord
  2
LINEA-SEZIO
 70
     0
 62
     2
  6
Continuous
370
    15
390
F
  0
LAYER
  5
14E
330
2
100
AcDbSymbolTableRecord
100
AcDbLayerTableRecord
  2
MUR-EST
 70
     0
 62
     3
  6
Continuous
370
    40
390
F
  0
LAYER
  5
14F
330
2
100
AcDbSymbolTableRecord
100
AcDbLayerTableRecord
  2
IMPIANTO-ELETTRICO
 70
     0
 62
     2
  6
Continuous
370
    -3
390
F
  0
LAYER
  5
150
330
2
100
AcDbSymbolTableRecord
100
AcDbLayerTableRecord
  2
INTESTAZIONE
 70
     0
 62
     9
  6
Continuous
370
    -3
390
F
  0
LAYER
  5
151
330
2
100
AcDbSymbolTableRecord
100
AcDbLayerTableRecord
  2
VV-F
 70
     0
 62
     3
  6
Continuous
370
    -3
390
F
  0
LAYER
  5
152
330
2
100
AcDbSymbolTableRecord
100
AcDbLayerTableRecord
  2
2DMURI
 70
     0
 62
     9
  6
Continuous
370
    -3
390
F
  0
LAYER
  5
8B0
330
2
100
AcDbSymbolTableRecord
100
AcDbLayerTableRecord
  2
TT
 70
     0
 62
     1
  6
Continuous
370
    15
390
F
  0
LAYER
  5
916
330
2
100
AcDbSymbolTableRecord
100
AcDbLayerTableRecord
  2
500
 70
     0
 62
     2
  6
Continuous
370
    -3
390
F
  0
LAYER
  5
917
330
2
100
AcDbSymbolTableRecord
100
AcDbLayerTableRecord
  2
VISTE
 70
     0
 62
     2
  6
Continuous
370
    30
390
F
  0
ENDTAB
  0
TABLE
  2
STYLE
  5
3
330
0
100
AcDbSymbolTable
 70
     6
  0
STYLE
  5
11
330
3
100
AcDbSymbolTableRecord
100
AcDbTextStyleTableRecord
  2
Standard
 70
     0
 40
0.0
 41
1.0
 50
0.0
 71
     0
 42
2.5
  3
txt
  4

  0
STYLE
  5
3F
330
3
100
AcDbSymbolTableRecord
100
AcDbTextStyleTableRecord
  2
ISO Proportional
 70
     0
 40
0.0
 41
1.0
 50
0.0
 71
     0
 42
2.5
  3
isocp
  4

  0
STYLE
  5
153
330
3
100
AcDbSymbolTableRecord
100
AcDbTextStyleTableRecord
  2
ROMANS
 70
     0
 40
0.0
 41
1.0
 50
0.0
 71
     0
 42
40.0
  3
ROMANS.shx
  4

  0
STYLE
  5
154
330
3
100
AcDbSymbolTableRecord
100
AcDbTextStyleTableRecord
  2
ROMANC
 70
     0
 40
0.0
 41
1.0
 50
0.0
 71
     0
 42
30.0
  3
ROMANC.shx
  4

  0
STYLE
  5
155
330
3
100
AcDbSymbolTableRecord
100
AcDbTextStyleTableRecord
  2
SYMATH
 70
     0
 40
0.0
 41
1.0
 50
0.0
 71
     0
 42
20.0
  3
symath
  4

  0
STYLE
  5
8F9
330
3
100
AcDbSymbolTableRecord
100
AcDbTextStyleTableRecord
  2

 70
     1
 40
0.0
 41
1.0
 50
0.0
 71
     0
 42
2.5
  3
ltypeshp.shx
  4

  0
ENDTAB
  0
TABLE
  2
VIEW
  5
6
330
0
100
AcDbSymbolTable
 70
     0
  0
ENDTAB
  0
TABLE
  2
UCS
  5
7
330
0
100
AcDbSymbolTable
 70
     0
  0
ENDTAB
  0
TABLE
  2
APPID
  5
9
330
0
100
AcDbSymbolTable
 70
     1
  0
APPID
  5
12
330
9
100
AcDbSymbolTableRecord
100
AcDbRegAppTableRecord
  2
ACAD
 70
     0
  0
ENDTAB
  0
TABLE
  2
DIMSTYLE
  5
A
330
0
100
AcDbSymbolTable
 70
     2
100
AcDbDimStyleTable
 71
     0
  0
DIMSTYLE
105
27
330
A
100
AcDbSymbolTableRecord
100
AcDbDimStyleTableRecord
  2
ISO-25
 70
     0
 41
2.5
 42
0.625
 43
3.75
 44
1.25
 73
     0
 74
     0
 77
     1
 78
     8
140
2.5
141
2.5
143
0.03937007874016
147
0.625
171
     3
172
     1
271
     2
272
     2
274
     3
278
    44
283
     0
284
     8
340
11
  0
DIMSTYLE
105
156
330
A
100
AcDbSymbolTableRecord
100
AcDbDimStyleTableRecord
  2
STANDARD
 70
     0
340
11
  0
ENDTAB
  0
TABLE
  2
BLOCK_RECORD
  5
1
330
0
100
AcDbSymbolTable
 70
     6
  0
BLOCK_RECORD
  5
1F
330
1
100
AcDbSymbolTableRecord
100
AcDbBlockTableRecord
  2
*Model_Space
340
22
  0
BLOCK_RECORD
  5
1B
330
1
100
AcDbSymbolTableRecord
100
AcDbBlockTableRecord
  2
*Paper_Space
340
1E
  0
BLOCK_RECORD
  5
31
330
1
100
AcDbSymbolTableRecord
100
AcDbBlockTableRecord
  2
ISO A4 title block (portrait)
340
0
310
2800000020000000200000000100080000000000000400000000000000000000000000000000000000000000000080000080000000808000800000008000800080800000C0C0C000C0DCC000F0CAA6000020400000206000002080000020A0000020C0000020E00000400000004020000040400000406000004080000040A0
310
000040C0000040E00000600000006020000060400000606000006080000060A0000060C0000060E00000800000008020000080400000806000008080000080A0000080C0000080E00000A0000000A0200000A0400000A0600000A0800000A0A00000A0C00000A0E00000C0000000C0200000C0400000C0600000C0800000C0
310
A00000C0C00000C0E00000E0000000E0200000E0400000E0600000E0800000E0A00000E0C00000E0E00040000000400020004000400040006000400080004000A0004000C0004000E00040200000402020004020400040206000402080004020A0004020C0004020E000404000004040200040404000404060004040800040
310
40A0004040C0004040E00040600000406020004060400040606000406080004060A0004060C0004060E00040800000408020004080400040806000408080004080A0004080C0004080E00040A0000040A0200040A0400040A0600040A0800040A0A00040A0C00040A0E00040C0000040C0200040C0400040C0600040C08000
310
40C0A00040C0C00040C0E00040E0000040E0200040E0400040E0600040E0800040E0A00040E0C00040E0E00080000000800020008000400080006000800080008000A0008000C0008000E00080200000802020008020400080206000802080008020A0008020C0008020E00080400000804020008040400080406000804080
310
008040A0008040C0008040E00080600000806020008060400080606000806080008060A0008060C0008060E00080800000808020008080400080806000808080008080A0008080C0008080E00080A0000080A0200080A0400080A0600080A0800080A0A00080A0C00080A0E00080C0000080C0200080C0400080C0600080C0
310
800080C0A00080C0C00080C0E00080E0000080E0200080E0400080E0600080E0800080E0A00080E0C00080E0E000C0000000C0002000C0004000C0006000C0008000C000A000C000C000C000E000C0200000C0202000C0204000C0206000C0208000C020A000C020C000C020E000C0400000C0402000C0404000C0406000C0
310
408000C040A000C040C000C040E000C0600000C0602000C0604000C0606000C0608000C060A000C060C000C060E000C0800000C0802000C0804000C0806000C0808000C080A000C080C000C080E000C0A00000C0A02000C0A04000C0A06000C0A08000C0A0A000C0A0C000C0A0E000C0C00000C0C02000C0C04000C0C06000
310
C0C08000C0C0A000F0FBFF00A4A0A000808080000000FF0000FF000000FFFF00FF000000FF00FF00FFFF0000FFFFFF00FFFFFFFFFFFFFFFFFFFFFFFFFFFFFFFFFFFFFFFFFFFFFFFFFFFFFFFFFFFFFFFFFFFFFFFFFFFFA4FFFFFFFFFFFFFFFFFFFFFFFFFFFFFFFFFFFFA4FFFFFFFFFFFFFFFFFFFFFFFFA4FCFCFDFCFDFDFDFD
310
FDFDFDFDFDFDFCFDFCFCA4FFFFFFFFFFFFFFFFFFFFFFFFFCFFFCFFFFFDFDFDFFFDFDFCFDFDFDFC00FC00FCFFFFFFFFFFFFFFFFFFFFFFFFFDFFFC0000FDFDFDFCFC00FC00FDFDFDFC0000FDFFFFFFFFFFFFFFFFFFFFFFFFFDFFFC0000000000FC0000FC00000000000000FDFFFFFFFFFFFFFFFFFFFFFFFFFCFFFC0000000000
310
0000000000FCFC000000FCFCFFFFFFFFFFFFFFFFFFFFFFFFFDFFFFFFFFFFFFFFFFFFFFFFFFFFFFFFFFFFFFFDFFFFFFFFFFFFFFFFFFFFFFFFFCFFFFFFFFFFFFFFFFFFFFFFFFFFFFFFFFFFFFFCFFFFFFFFFFFFFFFFFFFFFFFFFDFFFFFFFFFFFFFFFFFFFFFFFFFFFFFFFFFFFFFDFFFFFFFFFFFFFFFFFFFFFFFFFCFFFFFFFFFFFF
310
FFFFFFFFFFFFFFFFFFFFFFFFFCFFFFFFFFFFFFFFFFFFFFFFFFFDFFFFFFFFFFFFFFFFFFFFFFFFFFFFFFFFFFFFFDFFFFFFFFFFFFFFFFFFFFFFFFFCFFFFFFFFFFFFFFFFFFFFFFFFFFFFFFFFFFFFFCFFFFFFFFFFFFFFFFFFFFFFFFFDFFFFFFFFFFFFFFFFFFFFFFFFFFFFFFFFFFFFFDFFFFFFFFFFFFFFFFFFFFFFFFFCFFFFFFFFFF
310
FFFFFFFFFFFFFFFFFFFFFFFFFFFCFFFFFFFFFFFFFFFFFFFFFFFFFDFDFFFFFFFFFFFFFFFFFFFFFFFFFFFFFFFFFDFDFFFFFFFFFFFFFFFFFFFFFFFFFCFDFFFFFFFFFFFFFFFFFFFFFFFFFFFFFFFFFFFCFFFFFFFFFFFFFFFFFFFFFFFFFCFFFFFFFFFFFFFFFFFFFFFFFFFFFFFFFFFFFFFCFFFFFFFFFFFFFFFFFFFFFFFFFDFFFFFFFF
310
FFFFFFFFFFFFFFFFFFFFFFFFFFFFFDFFFFFFFFFFFFFFFFFFFFFFFFFCFFFFFFFFFFFFFFFFFFFFFFFFFFFFFFFFFFFFFCFFFFFFFFFFFFFFFFFFFFFFFFFDFFFFFFFFFFFFFFFFFFFFFFFFFFFFFFFFFFFFFDFFFFFFFFFFFFFFFFFFFFFFFFFCFFFFFFFFFFFFFFFFFFFFFFFFFFFFFFFFFFFFFCFFFFFFFFFFFFFFFFFFFFFFFFFDFFFFFF
310
FFFFFFFFFFFFFFFFFFFFFFFFFFFFFFFDFFFFFFFFFFFFFFFFFFFFFFFFFCFFFFFFFFFFFFFFFFFFFFFFFFFFFFFFFFFFFFFCFFFFFFFFFFFFFFFFFFFFFFFFFDFFFFFFFFFFFFFFFFFFFFFFFFFFFFFFFFFFFFFDFFFFFFFFFFFFFFFFFFFFFFFFFCFFFFFFFFFFFFFFFFFFFFFFFFFFFFFFFFFFFFFCFFFFFFFFFFFFFFFFFFFFFFFFFDFFFF
310
FFFFFFFFFFFFFFFFFFFFFFFFFFFFFFFFFDFFFFFFFFFFFFFFFFFFFFFFFFFDFFFFFFFFFFFFFFFFFFFFFFFFFFFFFFFFFFFFFDFFFFFFFFFFFFFFFFFFFFFFFFFCFFFC00FC0000FCFCFDFCFCFCFC0000FCFC00FCFFFFFFFFFFFFFFFFFFFFFFFFA4FCFCFDFCFDFCFDFCFDFCFCFDFCFCFCFCFCFCA4FFFFFFFFFFFFFFFFFFFFFFFFA4FF
310
FFFFFFFFFFFFFFFFFFFFFFFFFFFFFFFFFFA4FFFFFFFFFFFFFFFFFFFFFFFFFFFFFFFFFFFFFFFFFFFFFFFFFFFFFFFFFFFFFFFFFFFFFFFFFFFF
102
{BLKREFS
331
AB
102
}
1001
ACAD
1000
DesignCenter Data
1002
{
1070
     1
1070
     4
1002
}
  0
BLOCK_RECORD
  5
11A
330
1
100
AcDbSymbolTableRecord
100
AcDbBlockTableRecord
  2
DEST-LOC
340
0
102
{BLKREFS
331
65D
331
506
331
93C
102
}
  0
BLOCK_RECORD
  5
11F
330
1
100
AcDbSymbolTableRecord
100
AcDbBlockTableRecord
  2
A$C17763048
340
0
102
{BLKREFS
331
139
102
}
  0
BLOCK_RECORD
  5
137
330
1
100
AcDbSymbolTableRecord
100
AcDbBlockTableRecord
  2
A$C2E6E7F1B
340
0
102
{BLKREFS
331
13D
102
}
  0
BLOCK_RECORD
  5
13B
330
1
100
AcDbSymbolTableRecord
100
AcDbBlockTableRecord
  2
A$C41FF31FA
340
0
102
{BLKREFS
331
141
102
}
  0
BLOCK_RECORD
  5
13F
330
1
100
AcDbSymbolTableRecord
100
AcDbBlockTableRecord
  2
A$C100B143C
340
0
102
{BLKREFS
331
50B
102
}
  0
ENDTAB
  0
ENDSEC
  0
SECTION
  2
BLOCKS
  0
BLOCK
  5
20
330
1F
100
AcDbEntity
  8
0
100
AcDbBlockBegin
  2
*Model_Space
 70
     0
 10
0.0
 20
0.0
 30
0.0
  3
*Model_Space
  1

  0
ENDBLK
  5
21
330
1F
100
AcDbEntity
  8
0
100
AcDbBlockEnd
  0
BLOCK
  5
1C
330
1B
100
AcDbEntity
 67
     1
  8
0
100
AcDbBlockBegin
  2
*Paper_Space
 70
     0
 10
0.0
 20
0.0
 30
0.0
  3
*Paper_Space
  1

  0
ENDBLK
  5
1D
330
1B
100
AcDbEntity
 67
     1
  8
0
100
AcDbBlockEnd
  0
BLOCK
  5
A8
330
31
100
AcDbEntity
  8
0
100
AcDbBlockBegin
  2
ISO A4 title block (portrait)
 70
     2
 10
0.0
 20
0.0
 30
0.0
  3
ISO A4 title block (portrait)
  1

  4
ISO A4 title block (portrait) and attributes
  0
LINE
  5
32
330
31
100
AcDbEntity
  8
FRAME 070
100
AcDbLine
 10
200.0
 20
10.0
 30
0.0
 11
200.0
 21
287.0
 31
0.0
  0
LINE
  5
34
330
31
100
AcDbEntity
  8
FRAME 070
100
AcDbLine
 10
10.0
 20
287.0
 30
0.0
 11
10.0
 21
10.0
 31
0.0
  0
LINE
  5
35
330
31
100
AcDbEntity
  8
FRAME 050
100
AcDbLine
 10
12.5
 20
151.0
 30
0.0
 11
12.5
 21
146.0
 31
0.0
  0
LINE
  5
37
330
31
100
AcDbEntity
  8
FRAME 050
100
AcDbLine
 10
7.5
 20
148.5
 30
0.0
 11
12.5
 21
151.0
 31
0.0
  0
LINE
  5
38
330
31
100
AcDbEntity
  8
FRAME 070
100
AcDbLine
 10
10.0
 20
10.0
 30
0.0
 11
200.0
 21
10.0
 31
0.0
  0
LINE
  5
39
330
31
100
AcDbEntity
  8
FRAME 050
100
AcDbLine
 10
55.0
 20
5.0
 30
0.0
 11
155.0
 21
5.0
 31
0.0
  0
LINE
  5
3A
330
31
100
AcDbEntity
  8
FRAME 070
100
AcDbLine
 10
30.0
 20
30.0
 30
0.0
 11
200.0
 21
30.0
 31
0.0
  0
LINE
  5
3B
330
31
100
AcDbEntity
  8
FRAME 070
100
AcDbLine
 10
30.0
 20
40.0
 30
0.0
 11
200.0
 21
40.0
 31
0.0
  0
LINE
  5
3C
330
31
100
AcDbEntity
  8
FRAME 070
100
AcDbLine
 10
30.0
 20
46.0
 30
0.0
 11
200.0
 21
46.0
 31
0.0
  0
TEXT
  5
3D
330
31
100
AcDbEntity
  8
FRAME 025
100
AcDbText
 10
64.0
 20
35.75
 30
0.0
 40
2.5
  1
Checked by
  7
ISO Proportional
 11
64.0
 21
37.0
 31
0.0
100
AcDbText
 73
     2
  0
TEXT
  5
40
330
31
100
AcDbEntity
  8
FRAME 025
100
AcDbText
 10
64.0
 20
41.74999999999999
 30
0.0
 40
2.5
  1
Title/Name, designation, material, dimension etc
  7
ISO Proportional
 11
64.0
 21
43.0
 31
0.0
100
AcDbText
 73
     2
  0
ATTDEF
  5
41
330
31
100
AcDbEntity
  8
FRAME 025
100
AcDbText
 10
64.0
 20
31.75
 30
0.0
 40
2.5
  1
XXX
  7
ISO Proportional
 11
64.0
 21
33.0
 31
0.0
100
AcDbAttributeDefinition
  3
Checked by
  2
CHECKED_BY
 70
     8
 74
     2
  0
LINE
  5
42
330
31
100
AcDbEntity
  8
FRAME 200
100
AcDbLine
 10
0.0
 20
0.0
 30
0.0
 11
0.0
 21
10.0
 31
0.0
  0
LINE
  5
44
330
31
100
AcDbEntity
  8
FRAME 200
100
AcDbLine
 10
0.0
 20
0.0
 30
0.0
 11
10.0
 21
0.0
 31
0.0
  0
TEXT
  5
45
330
31
100
AcDbEntity
  8
FRAME 050
100
AcDbText
 10
6.099999999999999
 20
31.5
 30
0.0
 40
4.0
  1
F
  7
ISO Proportional
 72
     4
 11
7.5
 21
33.5
 31
0.0
100
AcDbText
  0
LINE
  5
46
330
31
100
AcDbEntity
  8
FRAME 050
100
AcDbLine
 10
55.0
 20
5.0
 30
0.0
 11
55.0
 21
10.0
 31
0.0
  0
LINE
  5
47
330
31
100
AcDbEntity
  8
FRAME 050
100
AcDbLine
 10
65.0
 20
5.0
 30
0.0
 11
65.0
 21
10.0
 31
0.0
  0
LINE
  5
48
330
31
100
AcDbEntity
  8
FRAME 050
100
AcDbLine
 10
75.0
 20
5.0
 30
0.0
 11
75.0
 21
10.0
 31
0.0
  0
TEXT
  5
49
330
31
100
AcDbEntity
  8
FRAME 050
100
AcDbText
 10
32.75
 20
5.5
 30
0.0
 40
4.0
  1
1
  7
ISO Proportional
 72
     4
 11
33.75
 21
7.5
 31
0.0
100
AcDbText
  0
TEXT
  5
4A
330
31
100
AcDbEntity
  8
FRAME 025
100
AcDbText
 10
32.0
 20
35.75
 30
0.0
 40
2.5
  1
Designed by
  7
ISO Proportional
 11
32.0
 21
37.0
 31
0.0
100
AcDbText
 73
     2
  0
ATTDEF
  5
4B
330
31
100
AcDbEntity
  8
FRAME 025
100
AcDbText
 10
32.0
 20
31.75
 30
0.0
 40
2.5
  1
XXX
  7
ISO Proportional
 11
32.0
 21
33.0
 31
0.0
100
AcDbAttributeDefinition
  3
Designed by
  2
DESIGNED_BY
 70
     8
 74
     2
  0
LINE
  5
4C
330
31
100
AcDbEntity
  8
FRAME 070
100
AcDbLine
 10
30.0
 20
10.0
 30
0.0
 11
30.0
 21
40.0
 31
0.0
  0
LINE
  5
4D
330
31
100
AcDbEntity
  8
FRAME 070
100
AcDbLine
 10
45.0
 20
40.0
 30
0.0
 11
45.0
 21
46.0
 31
0.0
  0
LINE
  5
4E
330
31
100
AcDbEntity
  8
FRAME 070
100
AcDbLine
 10
30.0
 20
40.0
 30
0.0
 11
30.0
 21
46.0
 31
0.0
  0
TEXT
  5
4F
330
31
100
AcDbEntity
  8
FRAME 025
100
AcDbText
 10
32.0
 20
41.74999999999999
 30
0.0
 40
2.5
  1
Itemref
  7
ISO Proportional
 11
32.0
 21
43.0
 31
0.0
100
AcDbText
 73
     2
  0
LINE
  5
50
330
31
100
AcDbEntity
  8
FRAME 070
100
AcDbLine
 10
62.0
 20
30.0
 30
0.0
 11
62.0
 21
40.0
 31
0.0
  0
ATTDEF
  5
51
330
31
100
AcDbEntity
  8
FRAME 050
100
AcDbText
 10
60.75
 20
17.5
 30
0.0
 40
5.0
  1
XXX
  7
ISO Proportional
 72
     4
 11
67.5
 21
20.0
 31
0.0
100
AcDbAttributeDefinition
  3
Owner
  2
OWNER
 70
     8
  0
LINE
  5
52
330
31
100
AcDbEntity
  8
FRAME 070
100
AcDbLine
 10
62.0
 20
40.0
 30
0.0
 11
62.0
 21
46.0
 31
0.0
  0
TEXT
  5
53
330
31
100
AcDbEntity
  8
FRAME 025
100
AcDbText
 10
47.0
 20
41.74999999999999
 30
0.0
 40
2.5
  1
Quantity
  7
ISO Proportional
 11
47.0
 21
43.0
 31
0.0
100
AcDbText
 73
     2
  0
LINE
  5
54
330
31
100
AcDbEntity
  8
FRAME 050
100
AcDbLine
 10
5.0
 20
148.5
 30
0.0
 11
15.0
 21
148.5
 31
0.0
  0
TEXT
  5
55
330
31
100
AcDbEntity
  8
FRAME 050
100
AcDbText
 10
6.099999999999999
 20
77.5
 30
0.0
 40
4.0
  1
E
  7
ISO Proportional
 72
     4
 11
7.5
 21
79.5
 31
0.0
100
AcDbText
  0
LINE
  5
56
330
31
100
AcDbEntity
  8
FRAME 050
100
AcDbLine
 10
10.0
 20
56.5
 30
0.0
 11
5.0
 21
56.5
 31
0.0
  0
TEXT
  5
57
330
31
100
AcDbEntity
  8
FRAME 050
100
AcDbText
 10
5.786091270347398
 20
123.5
 30
0.0
 40
4.0
  1
D
  7
ISO Proportional
 72
     4
 11
7.5
 21
125.5
 31
0.0
100
AcDbText
  0
LINE
  5
58
330
31
100
AcDbEntity
  8
FRAME 050
100
AcDbLine
 10
10.0
 20
102.5
 30
0.0
 11
5.0
 21
102.5
 31
0.0
  0
LINE
  5
59
330
31
100
AcDbEntity
  8
FRAME 050
100
AcDbLine
 10
12.5
 20
146.0
 30
0.0
 11
7.5
 21
148.5
 31
0.0
  0
LINE
  5
5A
330
31
100
AcDbEntity
  8
FRAME 070
100
AcDbLine
 10
105.0
 20
20.0
 30
0.0
 11
200.0
 21
20.0
 31
0.0
  0
ATTDEF
  5
5B
330
31
100
AcDbEntity
  8
FRAME 050
100
AcDbText
 10
133.65
 20
13.5
 30
0.0
 40
3.0
  1
X
  7
ISO Proportional
 72
     4
 11
135.0
 21
15.0
 31
0.0
100
AcDbAttributeDefinition
  3
Drawing number
  2
DRAWING_NUMBER
 70
     8
  0
LINE
  5
5C
330
31
100
AcDbEntity
  8
FRAME 050
100
AcDbLine
 10
105.0
 20
10.0
 30
0.0
 11
105.0
 21
5.0
 31
0.0
  0
LINE
  5
5D
330
31
100
AcDbEntity
  8
FRAME 050
100
AcDbLine
 10
85.0
 20
5.0
 30
0.0
 11
85.0
 21
10.0
 31
0.0
  0
LINE
  5
5E
330
31
100
AcDbEntity
  8
FRAME 050
100
AcDbLine
 10
95.0
 20
5.0
 30
0.0
 11
95.0
 21
10.0
 31
0.0
  0
LINE
  5
5F
330
31
100
AcDbEntity
  8
FRAME 050
100
AcDbLine
 10
115.0
 20
5.0
 30
0.0
 11
115.0
 21
10.0
 31
0.0
  0
LINE
  5
60
330
31
100
AcDbEntity
  8
FRAME 050
100
AcDbLine
 10
125.0
 20
5.0
 30
0.0
 11
125.0
 21
10.0
 31
0.0
  0
LINE
  5
61
330
31
100
AcDbEntity
  8
FRAME 050
100
AcDbLine
 10
135.0
 20
5.0
 30
0.0
 11
135.0
 21
10.0
 31
0.0
  0
LINE
  5
62
330
31
100
AcDbEntity
  8
FRAME 050
100
AcDbLine
 10
105.0
 20
7.5
 30
0.0
 11
102.5
 21
12.5
 31
0.0
  0
LINE
  5
63
330
31
100
AcDbEntity
  8
FRAME 050
100
AcDbLine
 10
107.5
 20
12.5
 30
0.0
 11
105.0
 21
7.5
 31
0.0
  0
TEXT
  5
64
330
31
100
AcDbEntity
  8
FRAME 025
100
AcDbText
 10
89.0
 20
35.75
 30
0.0
 40
2.5
  1
Approved by - date
  7
ISO Proportional
 11
89.0
 21
37.0
 31
0.0
100
AcDbText
 73
     2
  0
ATTDEF
  5
65
330
31
100
AcDbEntity
  8
FRAME 025
100
AcDbText
 10
89.0
 20
31.75
 30
0.0
 40
2.5
  1
XXX - 00/00/00
  7
ISO Proportional
 11
89.0
 21
33.0
 31
0.0
100
AcDbAttributeDefinition
  3
Approved by - Date
  2
APPROVED_BY_DATE
 70
     8
 74
     2
  0
LINE
  5
66
330
31
100
AcDbEntity
  8
FRAME 070
100
AcDbLine
 10
87.0
 20
30.0
 30
0.0
 11
87.0
 21
40.0
 31
0.0
  0
LINE
  5
67
330
31
100
AcDbEntity
  8
FRAME 070
100
AcDbLine
 10
105.0
 20
10.0
 30
0.0
 11
105.0
 21
30.0
 31
0.0
  0
LINE
  5
68
330
31
100
AcDbEntity
  8
FRAME 050
100
AcDbLine
 10
102.5
 20
12.5
 30
0.0
 11
107.5
 21
12.5
 31
0.0
  0
LINE
  5
69
330
31
100
AcDbEntity
  8
FRAME 050
100
AcDbLine
 10
105.0
 20
10.0
 30
0.0
 11
105.0
 21
15.0
 31
0.0
  0
ATTDEF
  5
6A
330
31
100
AcDbEntity
  8
FRAME 025
100
AcDbText
 10
127.0
 20
31.75
 30
0.0
 40
2.5
  1
XXX
  7
ISO Proportional
 11
127.0
 21
33.0
 31
0.0
100
AcDbAttributeDefinition
  3
File name
  2
FILENAME
 70
     8
 74
     2
  0
LINE
  5
6B
330
31
100
AcDbEntity
  8
FRAME 070
100
AcDbLine
 10
125.0
 20
30.0
 30
0.0
 11
125.0
 21
40.0
 31
0.0
  0
TEXT
  5
6C
330
31
100
AcDbEntity
  8
FRAME 025
100
AcDbText
 10
127.0
 20
35.75
 30
0.0
 40
2.5
  1
File name
  7
ISO Proportional
 11
127.0
 21
37.0
 31
0.0
100
AcDbText
 73
     2
  0
LINE
  5
6D
330
31
100
AcDbEntity
  8
FRAME 200
100
AcDbLine
 10
210.0
 20
0.0
 30
0.0
 11
210.0
 21
10.0
 31
0.0
  0
LINE
  5
6E
330
31
100
AcDbEntity
  8
FRAME 050
100
AcDbLine
 10
155.0
 20
5.0
 30
0.0
 11
155.0
 21
10.0
 31
0.0
  0
LINE
  5
6F
330
31
100
AcDbEntity
  8
FRAME 050
100
AcDbLine
 10
145.0
 20
5.0
 30
0.0
 11
145.0
 21
10.0
 31
0.0
  0
TEXT
  5
70
330
31
100
AcDbEntity
  8
FRAME 050
100
AcDbText
 10
174.65
 20
5.5
 30
0.0
 40
4.0
  1
4
  7
ISO Proportional
 72
     4
 11
176.25
 21
7.5
 31
0.0
100
AcDbText
  0
LINE
  5
71
330
31
100
AcDbEntity
  8
FRAME 200
100
AcDbLine
 10
210.0
 20
0.0
 30
0.0
 11
200.0
 21
0.0
 31
0.0
  0
TEXT
  5
72
330
31
100
AcDbEntity
  8
FRAME 025
100
AcDbText
 10
152.0
 20
41.74999999999999
 30
0.0
 40
2.5
  1
Article No./Reference
  7
ISO Proportional
 11
152.0
 21
43.0
 31
0.0
100
AcDbText
 73
     2
  0
ATTDEF
  5
73
330
31
100
AcDbEntity
  8
FRAME 025
100
AcDbText
 10
167.0
 20
11.75
 30
0.0
 40
2.5
  1
0
  7
ISO Proportional
 11
167.0
 21
13.0
 31
0.0
100
AcDbAttributeDefinition
  3
Edition
  2
EDITION
 70
     8
 74
     2
  0
LINE
  5
74
330
31
100
AcDbEntity
  8
FRAME 070
100
AcDbLine
 10
150.0
 20
30.0
 30
0.0
 11
150.0
 21
40.0
 31
0.0
  0
ATTDEF
  5
75
330
31
100
AcDbEntity
  8
FRAME 025
100
AcDbText
 10
152.0
 20
31.75
 30
0.0
 40
2.5
  1
00/00/00
  7
ISO Proportional
 11
152.0
 21
33.0
 31
0.0
100
AcDbAttributeDefinition
  3
Date
  2
DATE
 70
     8
 74
     2
  0
ATTDEF
  5
76
330
31
100
AcDbEntity
  8
FRAME 050
100
AcDbText
 10
145.75
 20
22.5
 30
0.0
 40
5.0
  1
XXX
  7
ISO Proportional
 72
     4
 11
152.5
 21
25.0
 31
0.0
100
AcDbAttributeDefinition
  3
Title / Name
  2
TITLE
 70
     8
  0
TEXT
  5
77
330
31
100
AcDbEntity
  8
FRAME 025
100
AcDbText
 10
167.0
 20
15.75
 30
0.0
 40
2.5
  1
Edition
  7
ISO Proportional
 11
167.0
 21
17.0
 31
0.0
100
AcDbText
 73
     2
  0
LINE
  5
78
330
31
100
AcDbEntity
  8
FRAME 070
100
AcDbLine
 10
165.0
 20
10.0
 30
0.0
 11
165.0
 21
20.0
 31
0.0
  0
LINE
  5
79
330
31
100
AcDbEntity
  8
FRAME 070
100
AcDbLine
 10
150.0
 20
40.0
 30
0.0
 11
150.0
 21
46.0
 31
0.0
  0
TEXT
  5
7A
330
31
100
AcDbEntity
  8
FRAME 025
100
AcDbText
 10
152.0
 20
35.75
 30
0.0
 40
2.5
  1
Date
  7
ISO Proportional
 11
152.0
 21
37.0
 31
0.0
100
AcDbText
 73
     2
  0
TEXT
  5
7B
330
31
100
AcDbEntity
  8
FRAME 050
100
AcDbText
 10
201.1
 20
31.5
 30
0.0
 40
4.0
  1
F
  7
ISO Proportional
 72
     4
 11
202.5
 21
33.5
 31
0.0
100
AcDbText
  0
LINE
  5
7C
330
31
100
AcDbEntity
  8
FRAME 070
100
AcDbLine
 10
180.0
 20
30.0
 30
0.0
 11
180.0
 21
40.0
 31
0.0
  0
ATTDEF
  5
7D
330
31
100
AcDbEntity
  8
FRAME 025
100
AcDbText
 10
182.0
 20
31.75
 30
0.0
 40
2.5
  1
1:1
  7
ISO Proportional
 11
182.0
 21
33.0
 31
0.0
100
AcDbAttributeDefinition
  3
Scale
  2
SCALE
 70
     8
 74
     2
  0
TEXT
  5
7E
330
31
100
AcDbEntity
  8
FRAME 025
100
AcDbText
 10
182.0
 20
15.75
 30
0.0
 40
2.5
  1
Sheet
  7
ISO Proportional
 11
182.0
 21
17.0
 31
0.0
100
AcDbText
 73
     2
  0
ATTDEF
  5
7F
330
31
100
AcDbEntity
  8
FRAME 025
100
AcDbText
 10
182.0
 20
11.75
 30
0.0
 40
2.5
  1
1/1
  7
ISO Proportional
 11
182.0
 21
13.0
 31
0.0
100
AcDbAttributeDefinition
  3
Sheet
  2
SHEET
 70
     8
 74
     2
  0
LINE
  5
80
330
31
100
AcDbEntity
  8
FRAME 070
100
AcDbLine
 10
180.0
 20
10.0
 30
0.0
 11
180.0
 21
20.0
 31
0.0
  0
TEXT
  5
81
330
31
100
AcDbEntity
  8
FRAME 025
100
AcDbText
 10
182.0
 20
35.75
 30
0.0
 40
2.5
  1
Scale
  7
ISO Proportional
 11
182.0
 21
37.0
 31
0.0
100
AcDbText
 73
     2
  0
TEXT
  5
82
330
31
100
AcDbEntity
  8
FRAME 050
100
AcDbText
 10
201.1
 20
77.5
 30
0.0
 40
4.0
  1
E
  7
ISO Proportional
 72
     4
 11
202.5
 21
79.5
 31
0.0
100
AcDbText
  0
LINE
  5
83
330
31
100
AcDbEntity
  8
FRAME 050
100
AcDbLine
 10
205.0
 20
56.5
 30
0.0
 11
200.0
 21
56.5
 31
0.0
  0
TEXT
  5
84
330
31
100
AcDbEntity
  8
FRAME 050
100
AcDbText
 10
200.7860912703474
 20
123.5
 30
0.0
 40
4.0
  1
D
  7
ISO Proportional
 72
     4
 11
202.5
 21
125.5
 31
0.0
100
AcDbText
  0
LINE
  5
85
330
31
100
AcDbEntity
  8
FRAME 050
100
AcDbLine
 10
205.0
 20
102.5
 30
0.0
 11
200.0
 21
102.5
 31
0.0
  0
LINE
  5
86
330
31
100
AcDbEntity
  8
FRAME 050
100
AcDbLine
 10
195.0
 20
148.5
 30
0.0
 11
205.0
 21
148.5
 31
0.0
  0
LINE
  5
87
330
31
100
AcDbEntity
  8
FRAME 070
100
AcDbLine
 10
200.0
 20
287.0
 30
0.0
 11
10.0
 21
287.0
 31
0.0
  0
LINE
  5
88
330
31
100
AcDbEntity
  8
FRAME 070
100
AcDbLine
 10
30.0
 20
281.0
 30
0.0
 11
200.0
 21
281.0
 31
0.0
  0
TEXT
  5
89
330
31
100
AcDbEntity
  8
FRAME 050
100
AcDbText
 10
6.193198051533947
 20
169.5
 30
0.0
 40
4.0
  1
C
  7
ISO Proportional
 72
     4
 11
7.5
 21
171.5
 31
0.0
100
AcDbText
  0
LINE
  5
8A
330
31
100
AcDbEntity
  8
FRAME 050
100
AcDbLine
 10
10.0
 20
194.5
 30
0.0
 11
5.0
 21
194.5
 31
0.0
  0
TEXT
  5
8B
330
31
100
AcDbEntity
  8
FRAME 050
100
AcDbText
 10
5.899999999999996
 20
215.5
 30
0.0
 40
4.0
  1
B
  7
ISO Proportional
 72
     4
 11
7.5
 21
217.5
 31
0.0
100
AcDbText
  0
LINE
  5
8C
330
31
100
AcDbEntity
  8
FRAME 050
100
AcDbLine
 10
10.0
 20
240.5
 30
0.0
 11
5.0
 21
240.5
 31
0.0
  0
LINE
  5
8D
330
31
100
AcDbEntity
  8
FRAME 200
100
AcDbLine
 10
0.0
 20
297.0
 30
0.0
 11
0.0
 21
287.0
 31
0.0
  0
TEXT
  5
8E
330
31
100
AcDbEntity
  8
FRAME 050
100
AcDbText
 10
5.699999999999999
 20
261.5
 30
0.0
 40
4.0
  1
A
  7
ISO Proportional
 72
     4
 11
7.5
 21
263.5
 31
0.0
100
AcDbText
  0
LINE
  5
8F
330
31
100
AcDbEntity
  8
FRAME 200
100
AcDbLine
 10
10.0
 20
297.0
 30
0.0
 11
0.0
 21
297.0
 31
0.0
  0
LINE
  5
90
330
31
100
AcDbEntity
  8
FRAME 050
100
AcDbLine
 10
57.5
 20
287.0
 30
0.0
 11
57.5
 21
292.0
 31
0.0
  0
TEXT
  5
91
330
31
100
AcDbEntity
  8
FRAME 050
100
AcDbText
 10
32.75
 20
287.5
 30
0.0
 40
4.0
  1
1
  7
ISO Proportional
 72
     4
 11
33.75
 21
289.5
 31
0.0
100
AcDbText
  0
TEXT
  5
92
330
31
100
AcDbEntity
  8
FRAME 025
100
AcDbText
 10
44.0
 20
282.75
 30
0.0
 40
2.5
  1
Revision note
  7
ISO Proportional
 11
44.0
 21
284.0
 31
0.0
100
AcDbText
 73
     2
  0
TEXT
  5
93
330
31
100
AcDbEntity
  8
FRAME 025
100
AcDbText
 10
32.0
 20
282.75
 30
0.0
 40
2.5
  1
RevNo
  7
ISO Proportional
 11
32.0
 21
284.0
 31
0.0
100
AcDbText
 73
     2
  0
LINE
  5
94
330
31
100
AcDbEntity
  8
FRAME 070
100
AcDbLine
 10
30.0
 20
281.0
 30
0.0
 11
30.0
 21
287.0
 31
0.0
  0
LINE
  5
95
330
31
100
AcDbEntity
  8
FRAME 070
100
AcDbLine
 10
42.0
 20
281.0
 30
0.0
 11
42.0
 21
287.0
 31
0.0
  0
TEXT
  5
96
330
31
100
AcDbEntity
  8
FRAME 050
100
AcDbText
 10
201.193198051534
 20
169.5
 30
0.0
 40
4.0
  1
C
  7
ISO Proportional
 72
     4
 11
202.5
 21
171.5
 31
0.0
100
AcDbText
  0
LINE
  5
97
330
31
100
AcDbEntity
  8
FRAME 050
100
AcDbLine
 10
205.0
 20
194.5
 30
0.0
 11
200.0
 21
194.5
 31
0.0
  0
TEXT
  5
98
330
31
100
AcDbEntity
  8
FRAME 050
100
AcDbText
 10
200.9
 20
215.5
 30
0.0
 40
4.0
  1
B
  7
ISO Proportional
 72
     4
 11
202.5
 21
217.5
 31
0.0
100
AcDbText
  0
LINE
  5
99
330
31
100
AcDbEntity
  8
FRAME 050
100
AcDbLine
 10
205.0
 20
240.5
 30
0.0
 11
200.0
 21
240.5
 31
0.0
  0
LINE
  5
9A
330
31
100
AcDbEntity
  8
FRAME 050
100
AcDbLine
 10
105.0
 20
282.0
 30
0.0
 11
105.0
 21
292.0
 31
0.0
  0
TEXT
  5
9B
330
31
100
AcDbEntity
  8
FRAME 050
100
AcDbText
 10
79.78066929133858
 20
287.3996062992126
 30
0.0
 40
4.0
  1
2
  7
ISO Proportional
 72
     4
 11
81.25
 21
289.5
 31
0.0
100
AcDbText
  0
TEXT
  5
9C
330
31
100
AcDbEntity
  8
FRAME 050
100
AcDbText
 10
127.2671572875254
 20
287.5828427124746
 30
0.0
 40
4.0
  1
3
  7
ISO Proportional
 72
     4
 11
128.75
 21
289.5
 31
0.0
100
AcDbText
  0
LINE
  5
9D
330
31
100
AcDbEntity
  8
FRAME 200
100
AcDbLine
 10
210.0
 20
287.0
 30
0.0
 11
210.0
 21
297.0
 31
0.0
  0
LINE
  5
9E
330
31
100
AcDbEntity
  8
FRAME 050
100
AcDbLine
 10
152.5
 20
287.0
 30
0.0
 11
152.5
 21
292.0
 31
0.0
  0
TEXT
  5
9F
330
31
100
AcDbEntity
  8
FRAME 050
100
AcDbText
 10
174.65
 20
287.5
 30
0.0
 40
4.0
  1
4
  7
ISO Proportional
 72
     4
 11
176.25
 21
289.5
 31
0.0
100
AcDbText
  0
TEXT
  5
A0
330
31
100
AcDbEntity
  8
FRAME 025
100
AcDbText
 10
171.3609979728353
 20
282.75
 30
0.0
 40
2.5
  1
Signature
  7
ISO Proportional
 11
171.3609979728353
 21
284.0
 31
0.0
100
AcDbText
 73
     2
  0
LINE
  5
A1
330
31
100
AcDbEntity
  8
FRAME 070
100
AcDbLine
 10
151.0
 20
281.0
 30
0.0
 11
151.0
 21
287.0
 31
0.0
  0
TEXT
  5
A2
330
31
100
AcDbEntity
  8
FRAME 025
100
AcDbText
 10
153.0
 20
282.75
 30
0.0
 40
2.5
  1
Date
  7
ISO Proportional
 11
153.0
 21
284.0
 31
0.0
100
AcDbText
 73
     2
  0
LINE
  5
A3
330
31
100
AcDbEntity
  8
FRAME 070
100
AcDbLine
 10
171.0
 20
281.0
 30
0.0
 11
171.0
 21
287.0
 31
0.0
  0
TEXT
  5
A4
330
31
100
AcDbEntity
  8
FRAME 050
100
AcDbText
 10
200.7
 20
261.5
 30
0.0
 40
4.0
  1
A
  7
ISO Proportional
 72
     4
 11
202.5
 21
263.5
 31
0.0
100
AcDbText
  0
TEXT
  5
A5
330
31
100
AcDbEntity
  8
FRAME 025
100
AcDbText
 10
187.0829939185055
 20
282.75
 30
0.0
 40
2.5
  1
Checked
  7
ISO Proportional
 11
187.0829939185055
 21
284.0
 31
0.0
100
AcDbText
 73
     2
  0
LINE
  5
A6
330
31
100
AcDbEntity
  8
FRAME 070
100
AcDbLine
 10
186.0
 20
281.0
 30
0.0
 11
186.0
 21
287.0
 31
0.0
  0
LINE
  5
A7
330
31
100
AcDbEntity
  8
FRAME 200
100
AcDbLine
 10
210.0
 20
297.0
 30
0.0
 11
200.0
 21
297.0
 31
0.0
  0
ENDBLK
  5
A9
330
31
100
AcDbEntity
  8
0
100
AcDbBlockEnd
  0
BLOCK
  5
11B
330
11A
100
AcDbEntity
  8
0
100
AcDbBlockBegin
  2
DEST-LOC
 70
     2
 10
0.0
 20
0.0
 30
0.0
  3
DEST-LOC
  1

  0
ATTDEF
  5
11C
330
11A
100
AcDbEntity
  8
0
100
AcDbText
 10
0.9958087850024114
 20
0.1508517374400071
 30
0.0
 40
1.0
  1
CAMERA
  7
ROMANS
 72
     4
 11
3.92438021357384
 21
0.6508517374400072
 31
0.0
100
AcDbAttributeDefinition
  3
DESTINAZIONE LOCALE
  2
DEST-LOC
 70
     0
  0
ATTDEF
  5
11D
330
11A
100
AcDbEntity
  8
0
100
AcDbText
 10
3.92438021357384
 20
-0.7720856503469804
 30
0.0
 40
1.0
  1

  7
ROMANS
 72
     4
 11
3.92438021357384
 21
-0.7720856503469804
 31
0.0
100
AcDbAttributeDefinition
  3
DESTINAZIONE LOCALE
  2
DEST-LOC
 70
     0
  0
ENDBLK
  5
11E
330
11A
100
AcDbEntity
  8
0
100
AcDbBlockEnd
  0
BLOCK
  5
120
330
11F
100
AcDbEntity
  8
0
100
AcDbBlockBegin
  2
A$C17763048
 70
     0
 10
0.0
 20
0.0
 30
0.0
  3
A$C17763048
  1

  0
SOLID
  5
121
330
11F
100
AcDbEntity
  8
2DMURI
100
AcDbTrace
 10
5.60957918836101
 20
5.467515743061085
 30
0.0
 11
5.101995967588948
 21
4.959932522289477
 31
0.0
 12
8.664765539846428
 22
4.95993252228925
 32
0.0
 13
8.664765539846428
 23
4.95993252228925
 33
0.0
  0
LINE
  5
122
330
11F
100
AcDbEntity
  8
2DMURI
100
AcDbLine
 10
8.664765539846428
 20
4.95993252228925
 30
0.0
 11
5.609579188360783
 21
4.452349301517642
 31
0.0
  0
LINE
  5
123
330
11F
100
AcDbEntity
  8
2DMURI
100
AcDbLine
 10
8.664765539846428
 20
4.95993252228925
 30
0.0
 11
5.609579188360783
 21
5.467515743061085
 31
0.0
  0
LINE
  5
124
330
11F
100
AcDbEntity
  8
2DMURI
100
AcDbLine
 10
8.664765539846428
 20
4.95993252228925
 30
0.0
 11
1.539226395331695
 21
4.95993252228925
 31
0.0
  0
CIRCLE
  5
125
330
11F
100
AcDbEntity
  8
2DMURI
100
AcDbCircle
 10
5.101995967588948
 20
4.959932522289477
 30
0.0
 40
3.56276957225742
  0
TEXT
  5
126
330
11F
100
AcDbEntity
  8
INTESTAZIONE
 62
     4
100
AcDbText
 10
4.466421604715776
 20
9.036434716691246
 30
0.0
 40
1.140479999999999
  1
N
  7
ROMANC
100
AcDbText
  0
TEXT
  5
127
330
11F
100
AcDbEntity
  8
INTESTAZIONE
 62
     4
100
AcDbText
 10
-0.0543078658575382
 20
4.354344868903922
 30
0.0
 40
1.140479999999999
  1
W
  7
ROMANC
100
AcDbText
  0
LINE
  5
128
330
11F
100
AcDbEntity
  8
2DMURI
100
AcDbLine
 10
5.101995967588948
 20
8.52270209454673
 30
0.0
 11
5.609579188360783
 21
5.467515743061085
 31
0.0
  0
LINE
  5
129
330
11F
100
AcDbEntity
  8
2DMURI
100
AcDbLine
 10
5.609579188360783
 20
5.467515743061085
 30
0.0
 11
4.59441274681734
 21
4.452349301517642
 31
0.0
  0
LINE
  5
12A
330
11F
100
AcDbEntity
  8
2DMURI
100
AcDbLine
 10
4.59441274681734
 20
5.467515743061085
 30
0.0
 11
5.609579188360783
 21
4.452349301517642
 31
0.0
  0
SOLID
  5
12B
330
11F
100
AcDbEntity
  8
2DMURI
100
AcDbTrace
 10
5.101995967588948
 20
8.52270209454673
 30
0.0
 11
4.59441274681734
 21
5.467515743061198
 31
0.0
 12
5.101995967588948
 22
4.959932522289477
 32
0.0
 13
5.101995967588948
 23
4.959932522289477
 33
0.0
  0
LINE
  5
12C
330
11F
100
AcDbEntity
  8
2DMURI
100
AcDbLine
 10
5.101995967588948
 20
8.52270209454673
 30
0.0
 11
4.59441274681734
 21
5.467515743061085
 31
0.0
  0
TEXT
  5
12D
330
11F
100
AcDbEntity
  8
INTESTAZIONE
 62
     4
100
AcDbText
 10
4.466421604715776
 20
0.0000002371240271
 30
0.0
 40
1.140479999999999
  1
S
  7
ROMANC
100
AcDbText
  0
LINE
  5
12E
330
11F
100
AcDbEntity
  8
2DMURI
100
AcDbLine
 10
5.101995967589175
 20
8.522702094546616
 30
0.0
 11
5.101995967588948
 21
1.397162950031997
 31
0.0
  0
SOLID
  5
12F
330
11F
100
AcDbEntity
  8
2DMURI
100
AcDbTrace
 10
5.101995967588948
 20
4.959932522289477
 30
0.0
 11
5.101995967588948
 21
1.39716295003177
 31
0.0
 12
5.60957918836101
 22
4.452349301517642
 32
0.0
 13
5.60957918836101
 23
4.452349301517642
 33
0.0
  0
LINE
  5
130
330
11F
100
AcDbEntity
  8
2DMURI
100
AcDbLine
 10
5.101995967588948
 20
1.39716295003177
 30
0.0
 11
5.609579188360783
 21
4.452349301517642
 31
0.0
  0
LINE
  5
131
330
11F
100
AcDbEntity
  8
2DMURI
100
AcDbLine
 10
5.101995967588948
 20
1.39716295003177
 30
0.0
 11
4.59441274681734
 21
4.452349301517642
 31
0.0
  0
SOLID
  5
132
330
11F
100
AcDbEntity
  8
2DMURI
100
AcDbTrace
 10
1.539226395331695
 20
4.95993252228925
 30
0.0
 11
5.101995967588948
 21
4.959932522289477
 31
0.0
 12
4.59441274681734
 22
4.452349301517642
 32
0.0
 13
4.59441274681734
 23
4.452349301517642
 33
0.0
  0
LINE
  5
133
330
11F
100
AcDbEntity
  8
2DMURI
100
AcDbLine
 10
1.539226395331581
 20
4.95993252228925
 30
0.0
 11
4.59441274681734
 21
4.452349301517642
 31
0.0
  0
LINE
  5
134
330
11F
100
AcDbEntity
  8
2DMURI
100
AcDbLine
 10
1.539226395331581
 20
4.95993252228925
 30
0.0
 11
4.59441274681734
 21
5.467515743061085
 31
0.0
  0
TEXT
  5
135
330
11F
100
AcDbEntity
  8
INTESTAZIONE
 62
     4
100
AcDbText
 10
8.963729399537044
 20
4.354344868903922
 30
0.0
 40
1.140479999999999
  1
E
  7
ROMANC
100
AcDbText
  0
ENDBLK
  5
136
330
11F
100
AcDbEntity
  8
0
100
AcDbBlockEnd
  0
BLOCK
  5
138
330
137
100
AcDbEntity
  8
0
 48
3.0
100
AcDbBlockBegin
  2
A$C2E6E7F1B
 70
     0
 10
0.0
 20
0.0
 30
0.0
  3
A$C2E6E7F1B
  1

  0
INSERT
  5
139
330
137
100
AcDbEntity
  8
IMPIANTO-ELETTRICO
  6
Continuous
100
AcDbBlockReference
  2
A$C17763048
 10
3.295675189257508
 20
-2.776562177830783
 30
0.0
 50
36.85353549827385
  0
ENDBLK
  5
13A
330
137
100
AcDbEntity
  8
0
 48
3.0
100
AcDbBlockEnd
  0
BLOCK
  5
13C
330
13B
100
AcDbEntity
  8
0
 62
     2
100
AcDbBlockBegin
  2
A$C41FF31FA
 70
     0
 10
0.0
 20
0.0
 30
0.0
  3
A$C41FF31FA
  1

  0
INSERT
  5
13D
330
13B
100
AcDbEntity
  8
VV-F
  6
Continuous
 48
3.0
100
AcDbBlockReference
  2
A$C2E6E7F1B
 10
-0.0000550153636141
 20
0.0000199445785256
 30
0.0
  0
ENDBLK
  5
13E
330
13B
100
AcDbEntity
  8
0
 62
     2
100
AcDbBlockEnd
  0
BLOCK
  5
140
330
13F
100
AcDbEntity
  8
0
100
AcDbBlockBegin
  2
A$C100B143C
 70
     0
 10
0.0
 20
0.0
 30
0.0
  3
A$C100B143C
  1

  0
INSERT
  5
141
330
13F
100
AcDbEntity
  8
0
 62
     2
100
AcDbBlockReference
  2
A$C41FF31FA
 10
-24.3660406078161
 20
105.2953549630419
 30
0.0
 41
25.0
 42
25.0
 43
25.0
 50
323.0194881629344
  0
ENDBLK
  5
142
330
13F
100
AcDbEntity
  8
0
100
AcDbBlockEnd
  0
ENDSEC
  0
SECTION
  2
ENTITIES
  0
INSERT
  5
506
330
1F
100
AcDbEntity
  8
DEST-LOC
100
AcDbBlockReference
 66
     1
  2
DEST-LOC
 10
1216.9121248104
 20
2752.982355625175
 30
0.0
 41
20.0
 42
20.0
 43
20.0
  0
ATTRIB
  5
507
330
506
100
AcDbEntity
  8
0
100
AcDbText
 10
1188.25687193902
 20
2750.999390373975
 30
0.0
 40
30.0
  1
DEPOSITO
  7
ROMANS
 72
     4
 11
1295.399729081877
 21
2765.999390373975
 31
0.0
100
AcDbAttribute
  2
DEST-LOC
 70
     0
  0
ATTRIB
  5
508
330
506
100
AcDbEntity
  8
0
100
AcDbText
 10
1295.399729081877
 20
2737.540642618236
 30
0.0
 40
20.0
  1

  7
ROMANS
 72
     4
 11
1295.399729081877
 21
2737.540642618236
 31
0.0
100
AcDbAttribute
  2
DEST-LOC
 70
     0
  0
SEQEND
  5
509
330
506
100
AcDbEntity
  8
DEST-LOC
  0
TEXT
  5
50A
330
1F
100
AcDbEntity
  8
QUOTE-ANT
100
AcDbText
 10
2315.587274295369
 20
2383.093801468461
 30
0.0
 40
30.0
  1
-165
  7
ROMANS
100
AcDbText
  0
INSERT
  5
50B
330
1F
100
AcDbEntity
  8
SCRITTE-VARIE
100
AcDbBlockReference
  2
A$C100B143C
 10
3996.983732814342
 20
4894.506552674921
 30
0.0
 41
1.599999999998206
 42
1.599999999999909
 43
1280.824229898207
 50
42.07028415393705
  0
LWPOLYLINE
  5
50C
330
1F
100
AcDbEntity
  8
0
 62
     1
100
AcDbPolyline
 90
        8
 70
     1
 43
0.0
 10
1325.635627600735
 20
4733.222687289923
 10
1269.385627600735
 20
4733.222687289923
 42
0.4142135623730951
 10
1263.135627600735
 20
4726.972687289923
 10
1263.135627600735
 20
4651.972687289923
 42
0.4142135623730951
 10
1269.385627600735
 20
4645.722687289923
 10
1325.635627600735
 20
4645.722687289923
 42
0.4142135623730951
 10
1331.885627600735
 20
4651.972687289923
 10
1331.885627600735
 20
4726.972687289923
 42
0.4142135623730951
  0
LWPOLYLINE
  5
50D
330
1F
100
AcDbEntity
  8
0
 62
     1
100
AcDbPolyline
 90
        8
 70
     1
 43
0.0
 10
1325.635627600735
 20
4729.472687289923
 10
1269.385627600735
 20
4729.472687289923
 42
0.4142135623730951
 10
1266.885627600735
 20
4726.972687289923
 10
1266.885627600735
 20
4651.972687289923
 42
0.4142135623730951
 10
1269.385627600735
 20
4649.472687289923
 10
1325.635627600735
 20
4649.472687289923
 42
0.4142135623730951
 10
1328.135627600735
 20
4651.972687289923
 10
1328.135627600735
 20
4726.972687289923
 42
0.4142135623730951
  0
ARC
  5
50E
330
1F
100
AcDbEntity
  8
0
 62
     1
100
AcDbCircle
 10
1287.510627600735
 20
4659.472687289923
 30
0.0
 40
3.75
100
AcDbArc
 50
270.0
 51
0.0
  0
LINE
  5
50F
330
1F
100
AcDbEntity
  8
0
 62
     1
100
AcDbLine
 10
1276.260627600735
 20
4655.722687289923
 30
0.0
 11
1287.510627600735
 21
4655.722687289923
 31
0.0
  0
LINE
  5
510
330
1F
100
AcDbEntity
  8
0
 62
     1
100
AcDbLine
 10
1291.260627600735
 20
4689.472687289923
 30
0.0
 11
1291.260627600735
 21
4659.472687289923
 31
0.0
  0
ARC
  5
511
330
1F
100
AcDbEntity
  8
0
 62
     1
100
AcDbCircle
 10
1287.510627600735
 20
4689.472687289923
 30
0.0
 40
3.75
100
AcDbArc
 50
0.0
 51
90.0
  0
LINE
  5
512
330
1F
100
AcDbEntity
  8
0
 62
     1
100
AcDbLine
 10
1276.260627600735
 20
4693.222687289924
 30
0.0
 11
1287.510627600735
 21
4693.222687289924
 31
0.0
  0
ARC
  5
513
330
1F
100
AcDbEntity
  8
0
 62
     1
100
AcDbCircle
 10
1276.260627600735
 20
4689.472687289923
 30
0.0
 40
3.75
100
AcDbArc
 50
90.0
 51
180.0
  0
LINE
  5
514
330
1F
100
AcDbEntity
  8
0
 62
     1
100
AcDbLine
 10
1272.510627600735
 20
4689.472687289923
 30
0.0
 11
1272.510627600735
 21
4659.472687289923
 31
0.0
  0
ARC
  5
515
330
1F
100
AcDbEntity
  8
0
 62
     1
100
AcDbCircle
 10
1276.260627600735
 20
4659.472687289923
 30
0.0
 40
3.75
100
AcDbArc
 50
180.0
 51
270.0
  0
LINE
  5
516
330
1F
100
AcDbEntity
  8
0
 62
     1
100
AcDbLine
 10
1287.510627600739
 20
4686.972687289923
 30
0.0
 11
1276.260627600739
 21
4686.972687289923
 31
0.0
  0
LINE
  5
517
330
1F
100
AcDbEntity
  8
0
 62
     1
100
AcDbLine
 10
1287.510627600739
 20
4680.722687289923
 30
0.0
 11
1276.260627600739
 21
4680.722687289923
 31
0.0
  0
LINE
  5
518
330
1F
100
AcDbEntity
  8
0
 62
     1
100
AcDbLine
 10
1287.510627600735
 20
4674.472687289923
 30
0.0
 11
1276.260627600735
 21
4674.472687289923
 31
0.0
  0
LINE
  5
519
330
1F
100
AcDbEntity
  8
0
 62
     1
100
AcDbLine
 10
1287.510627600735
 20
4668.222687289923
 30
0.0
 11
1276.260627600735
 21
4668.222687289923
 31
0.0
  0
LINE
  5
51A
330
1F
100
AcDbEntity
  8
0
 62
     1
100
AcDbLine
 10
1287.510627600735
 20
4661.972687289924
 30
0.0
 11
1276.260627600735
 21
4661.972687289924
 31
0.0
  0
ARC
  5
51B
330
1F
100
AcDbEntity
  8
0
 62
     1
100
AcDbCircle
 10
1318.760627600735
 20
4659.472687289923
 30
0.0
 40
3.75
100
AcDbArc
 50
270.0
 51
0.0
  0
LINE
  5
51C
330
1F
100
AcDbEntity
  8
0
 62
     1
100
AcDbLine
 10
1322.510627600735
 20
4689.472687289923
 30
0.0
 11
1322.510627600735
 21
4659.472687289923
 31
0.0
  0
ARC
  5
51D
330
1F
100
AcDbEntity
  8
0
 62
     1
100
AcDbCircle
 10
1318.760627600735
 20
4689.472687289923
 30
0.0
 40
3.75
100
AcDbArc
 50
0.0
 51
90.0
  0
LINE
  5
51E
330
1F
100
AcDbEntity
  8
0
 62
     1
100
AcDbLine
 10
1318.760627600735
 20
4693.222687289924
 30
0.0
 11
1307.510627600735
 21
4693.222687289924
 31
0.0
  0
ARC
  5
51F
330
1F
100
AcDbEntity
  8
0
 62
     1
100
AcDbCircle
 10
1307.510627600735
 20
4689.472687289923
 30
0.0
 40
3.75
100
AcDbArc
 50
90.0
 51
180.0
  0
LINE
  5
520
330
1F
100
AcDbEntity
  8
0
 62
     1
100
AcDbLine
 10
1303.760627600735
 20
4689.472687289923
 30
0.0
 11
1303.760627600735
 21
4659.472687289923
 31
0.0
  0
LINE
  5
521
330
1F
100
AcDbEntity
  8
0
 62
     1
100
AcDbLine
 10
1318.760627600735
 20
4655.722687289923
 30
0.0
 11
1307.510627600735
 21
4655.722687289923
 31
0.0
  0
ARC
  5
522
330
1F
100
AcDbEntity
  8
0
 62
     1
100
AcDbCircle
 10
1307.510627600735
 20
4659.472687289923
 30
0.0
 40
3.75
100
AcDbArc
 50
180.0
 51
270.0
  0
LINE
  5
523
330
1F
100
AcDbEntity
  8
0
 62
     1
100
AcDbLine
 10
1318.760627600735
 20
4661.972687289924
 30
0.0
 11
1307.510627600735
 21
4661.972687289924
 31
0.0
  0
LINE
  5
524
330
1F
100
AcDbEntity
  8
0
 62
     1
100
AcDbLine
 10
1318.760627600735
 20
4668.222687289923
 30
0.0
 11
1307.510627600735
 21
4668.222687289923
 31
0.0
  0
LINE
  5
525
330
1F
100
AcDbEntity
  8
0
 62
     1
100
AcDbLine
 10
1318.760627600735
 20
4674.472687289923
 30
0.0
 11
1307.510627600735
 21
4674.472687289923
 31
0.0
  0
LINE
  5
526
330
1F
100
AcDbEntity
  8
0
 62
     1
100
AcDbLine
 10
1318.760627600739
 20
4680.722687289923
 30
0.0
 11
1307.510627600739
 21
4680.722687289923
 31
0.0
  0
LINE
  5
527
330
1F
100
AcDbEntity
  8
0
 62
     1
100
AcDbLine
 10
1318.760627600739
 20
4686.972687289923
 30
0.0
 11
1307.510627600739
 21
4686.972687289923
 31
0.0
  0
CIRCLE
  5
528
330
1F
100
AcDbEntity
  8
0
 62
     1
100
AcDbCircle
 10
1297.510627600735
 20
4715.178406725966
 30
0.0
 40
10.0
  0
CIRCLE
  5
529
330
1F
100
AcDbEntity
  8
0
 62
     1
100
AcDbCircle
 10
1186.760043243564
 20
4715.178406725966
 30
0.0
 40
10.0
  0
LINE
  5
52A
330
1F
100
AcDbEntity
  8
0
 62
     1
100
AcDbLine
 10
1208.010043243568
 20
4686.972687289923
 30
0.0
 11
1196.760043243568
 21
4686.972687289923
 31
0.0
  0
LINE
  5
52B
330
1F
100
AcDbEntity
  8
0
 62
     1
100
AcDbLine
 10
1208.010043243568
 20
4680.722687289923
 30
0.0
 11
1196.760043243568
 21
4680.722687289923
 31
0.0
  0
LINE
  5
52C
330
1F
100
AcDbEntity
  8
0
 62
     1
100
AcDbLine
 10
1208.010043243565
 20
4674.472687289923
 30
0.0
 11
1196.760043243564
 21
4674.472687289923
 31
0.0
  0
LINE
  5
52D
330
1F
100
AcDbEntity
  8
0
 62
     1
100
AcDbLine
 10
1208.010043243565
 20
4668.222687289923
 30
0.0
 11
1196.760043243564
 21
4668.222687289923
 31
0.0
  0
LINE
  5
52E
330
1F
100
AcDbEntity
  8
0
 62
     1
100
AcDbLine
 10
1208.010043243565
 20
4661.972687289924
 30
0.0
 11
1196.760043243564
 21
4661.972687289924
 31
0.0
  0
ARC
  5
52F
330
1F
100
AcDbEntity
  8
0
 62
     1
100
AcDbCircle
 10
1196.760043243564
 20
4659.472687289923
 30
0.0
 40
3.75
100
AcDbArc
 50
180.0
 51
270.0
  0
LINE
  5
530
330
1F
100
AcDbEntity
  8
0
 62
     1
100
AcDbLine
 10
1208.010043243565
 20
4655.722687289923
 30
0.0
 11
1196.760043243564
 21
4655.722687289923
 31
0.0
  0
LINE
  5
531
330
1F
100
AcDbEntity
  8
0
 62
     1
100
AcDbLine
 10
1193.010043243565
 20
4689.472687289923
 30
0.0
 11
1193.010043243565
 21
4659.472687289923
 31
0.0
  0
ARC
  5
532
330
1F
100
AcDbEntity
  8
0
 62
     1
100
AcDbCircle
 10
1196.760043243564
 20
4689.472687289923
 30
0.0
 40
3.75
100
AcDbArc
 50
90.0
 51
180.0
  0
LINE
  5
533
330
1F
100
AcDbEntity
  8
0
 62
     1
100
AcDbLine
 10
1208.010043243565
 20
4693.222687289924
 30
0.0
 11
1196.760043243564
 21
4693.222687289924
 31
0.0
  0
ARC
  5
534
330
1F
100
AcDbEntity
  8
0
 62
     1
100
AcDbCircle
 10
1208.010043243565
 20
4689.472687289923
 30
0.0
 40
3.75
100
AcDbArc
 50
0.0
 51
90.0
  0
LINE
  5
535
330
1F
100
AcDbEntity
  8
0
 62
     1
100
AcDbLine
 10
1211.760043243565
 20
4689.472687289923
 30
0.0
 11
1211.760043243565
 21
4659.472687289923
 31
0.0
  0
ARC
  5
536
330
1F
100
AcDbEntity
  8
0
 62
     1
100
AcDbCircle
 10
1208.010043243565
 20
4659.472687289923
 30
0.0
 40
3.75
100
AcDbArc
 50
270.0
 51
0.0
  0
LINE
  5
537
330
1F
100
AcDbEntity
  8
0
 62
     1
100
AcDbLine
 10
1176.760043243564
 20
4661.972687289924
 30
0.0
 11
1165.510043243564
 21
4661.972687289924
 31
0.0
  0
LINE
  5
538
330
1F
100
AcDbEntity
  8
0
 62
     1
100
AcDbLine
 10
1176.760043243564
 20
4668.222687289923
 30
0.0
 11
1165.510043243564
 21
4668.222687289923
 31
0.0
  0
LINE
  5
539
330
1F
100
AcDbEntity
  8
0
 62
     1
100
AcDbLine
 10
1176.760043243564
 20
4674.472687289923
 30
0.0
 11
1165.510043243564
 21
4674.472687289923
 31
0.0
  0
LINE
  5
53A
330
1F
100
AcDbEntity
  8
0
 62
     1
100
AcDbLine
 10
1176.760043243568
 20
4680.722687289923
 30
0.0
 11
1165.510043243568
 21
4680.722687289923
 31
0.0
  0
LINE
  5
53B
330
1F
100
AcDbEntity
  8
0
 62
     1
100
AcDbLine
 10
1176.760043243568
 20
4686.972687289923
 30
0.0
 11
1165.510043243568
 21
4686.972687289923
 31
0.0
  0
ARC
  5
53C
330
1F
100
AcDbEntity
  8
0
 62
     1
100
AcDbCircle
 10
1165.510043243564
 20
4659.472687289923
 30
0.0
 40
3.75
100
AcDbArc
 50
180.0
 51
270.0
  0
LINE
  5
53D
330
1F
100
AcDbEntity
  8
0
 62
     1
100
AcDbLine
 10
1161.760043243565
 20
4689.472687289923
 30
0.0
 11
1161.760043243565
 21
4659.472687289923
 31
0.0
  0
ARC
  5
53E
330
1F
100
AcDbEntity
  8
0
 62
     1
100
AcDbCircle
 10
1165.510043243564
 20
4689.472687289923
 30
0.0
 40
3.75
100
AcDbArc
 50
90.0
 51
180.0
  0
LINE
  5
53F
330
1F
100
AcDbEntity
  8
0
 62
     1
100
AcDbLine
 10
1165.510043243564
 20
4693.222687289924
 30
0.0
 11
1176.760043243564
 21
4693.222687289924
 31
0.0
  0
ARC
  5
540
330
1F
100
AcDbEntity
  8
0
 62
     1
100
AcDbCircle
 10
1176.760043243564
 20
4689.472687289923
 30
0.0
 40
3.75
100
AcDbArc
 50
0.0
 51
90.0
  0
LINE
  5
541
330
1F
100
AcDbEntity
  8
0
 62
     1
100
AcDbLine
 10
1180.510043243565
 20
4689.472687289923
 30
0.0
 11
1180.510043243565
 21
4659.472687289923
 31
0.0
  0
LINE
  5
542
330
1F
100
AcDbEntity
  8
0
 62
     1
100
AcDbLine
 10
1165.510043243564
 20
4655.722687289923
 30
0.0
 11
1176.760043243564
 21
4655.722687289923
 31
0.0
  0
ARC
  5
543
330
1F
100
AcDbEntity
  8
0
 62
     1
100
AcDbCircle
 10
1176.760043243564
 20
4659.472687289923
 30
0.0
 40
3.75
100
AcDbArc
 50
270.0
 51
0.0
  0
LWPOLYLINE
  5
544
330
1F
100
AcDbEntity
  8
0
 62
     1
100
AcDbPolyline
 90
        8
 70
     1
 43
0.0
 10
1214.885043243564
 20
4729.472687289923
 10
1158.635043243564
 20
4729.472687289923
 42
0.4142135623730951
 10
1156.135043243564
 20
4726.972687289923
 10
1156.135043243564
 20
4651.972687289923
 42
0.4142135623730951
 10
1158.635043243564
 20
4649.472687289923
 10
1214.885043243564
 20
4649.472687289923
 42
0.4142135623730951
 10
1217.385043243564
 20
4651.972687289923
 10
1217.385043243564
 20
4726.972687289923
 42
0.4142135623730951
  0
LWPOLYLINE
  5
545
330
1F
100
AcDbEntity
  8
0
 62
     1
100
AcDbPolyline
 90
        8
 70
     1
 43
0.0
 10
1214.885043243564
 20
4733.222687289923
 10
1158.635043243564
 20
4733.222687289923
 42
0.4142135623730951
 10
1152.385043243564
 20
4726.972687289923
 10
1152.385043243564
 20
4651.972687289923
 42
0.4142135623730951
 10
1158.635043243564
 20
4645.722687289923
 10
1214.885043243564
 20
4645.722687289923
 42
0.4142135623730951
 10
1221.135043243564
 20
4651.972687289923
 10
1221.135043243564
 20
4726.972687289923
 42
0.4142135623730951
  0
CIRCLE
  5
546
330
1F
100
AcDbEntity
  8
0
 62
     1
100
AcDbCircle
 10
1074.907471729144
 20
4715.178406725966
 30
0.0
 40
10.0
  0
LINE
  5
547
330
1F
100
AcDbEntity
  8
0
 62
     1
100
AcDbLine
 10
1096.157471729148
 20
4686.972687289923
 30
0.0
 11
1084.907471729148
 21
4686.972687289923
 31
0.0
  0
LINE
  5
548
330
1F
100
AcDbEntity
  8
0
 62
     1
100
AcDbLine
 10
1096.157471729148
 20
4680.722687289923
 30
0.0
 11
1084.907471729148
 21
4680.722687289923
 31
0.0
  0
LINE
  5
549
330
1F
100
AcDbEntity
  8
0
 62
     1
100
AcDbLine
 10
1096.157471729144
 20
4674.472687289923
 30
0.0
 11
1084.907471729144
 21
4674.472687289923
 31
0.0
  0
LINE
  5
54A
330
1F
100
AcDbEntity
  8
0
 62
     1
100
AcDbLine
 10
1096.157471729144
 20
4668.222687289923
 30
0.0
 11
1084.907471729144
 21
4668.222687289923
 31
0.0
  0
LINE
  5
54B
330
1F
100
AcDbEntity
  8
0
 62
     1
100
AcDbLine
 10
1096.157471729144
 20
4661.972687289924
 30
0.0
 11
1084.907471729144
 21
4661.972687289924
 31
0.0
  0
ARC
  5
54C
330
1F
100
AcDbEntity
  8
0
 62
     1
100
AcDbCircle
 10
1084.907471729144
 20
4659.472687289923
 30
0.0
 40
3.75
100
AcDbArc
 50
180.0
 51
270.0
  0
LINE
  5
54D
330
1F
100
AcDbEntity
  8
0
 62
     1
100
AcDbLine
 10
1096.157471729144
 20
4655.722687289923
 30
0.0
 11
1084.907471729144
 21
4655.722687289923
 31
0.0
  0
LINE
  5
54E
330
1F
100
AcDbEntity
  8
0
 62
     1
100
AcDbLine
 10
1081.157471729144
 20
4689.472687289923
 30
0.0
 11
1081.157471729144
 21
4659.472687289923
 31
0.0
  0
ARC
  5
54F
330
1F
100
AcDbEntity
  8
0
 62
     1
100
AcDbCircle
 10
1084.907471729144
 20
4689.472687289923
 30
0.0
 40
3.75
100
AcDbArc
 50
90.0
 51
180.0
  0
LINE
  5
550
330
1F
100
AcDbEntity
  8
0
 62
     1
100
AcDbLine
 10
1096.157471729144
 20
4693.222687289924
 30
0.0
 11
1084.907471729144
 21
4693.222687289924
 31
0.0
  0
ARC
  5
551
330
1F
100
AcDbEntity
  8
0
 62
     1
100
AcDbCircle
 10
1096.157471729144
 20
4689.472687289923
 30
0.0
 40
3.75
100
AcDbArc
 50
0.0
 51
90.0
  0
LINE
  5
552
330
1F
100
AcDbEntity
  8
0
 62
     1
100
AcDbLine
 10
1099.907471729144
 20
4689.472687289923
 30
0.0
 11
1099.907471729144
 21
4659.472687289923
 31
0.0
  0
ARC
  5
553
330
1F
100
AcDbEntity
  8
0
 62
     1
100
AcDbCircle
 10
1096.157471729144
 20
4659.472687289923
 30
0.0
 40
3.75
100
AcDbArc
 50
270.0
 51
0.0
  0
LINE
  5
554
330
1F
100
AcDbEntity
  8
0
 62
     1
100
AcDbLine
 10
1064.907471729144
 20
4661.972687289924
 30
0.0
 11
1053.657471729144
 21
4661.972687289924
 31
0.0
  0
LINE
  5
555
330
1F
100
AcDbEntity
  8
0
 62
     1
100
AcDbLine
 10
1064.907471729144
 20
4668.222687289923
 30
0.0
 11
1053.657471729144
 21
4668.222687289923
 31
0.0
  0
LINE
  5
556
330
1F
100
AcDbEntity
  8
0
 62
     1
100
AcDbLine
 10
1064.907471729144
 20
4674.472687289923
 30
0.0
 11
1053.657471729144
 21
4674.472687289923
 31
0.0
  0
LINE
  5
557
330
1F
100
AcDbEntity
  8
0
 62
     1
100
AcDbLine
 10
1064.907471729148
 20
4680.722687289923
 30
0.0
 11
1053.657471729148
 21
4680.722687289923
 31
0.0
  0
LINE
  5
558
330
1F
100
AcDbEntity
  8
0
 62
     1
100
AcDbLine
 10
1064.907471729148
 20
4686.972687289923
 30
0.0
 11
1053.657471729148
 21
4686.972687289923
 31
0.0
  0
ARC
  5
559
330
1F
100
AcDbEntity
  8
0
 62
     1
100
AcDbCircle
 10
1053.657471729144
 20
4659.472687289923
 30
0.0
 40
3.75
100
AcDbArc
 50
180.0
 51
270.0
  0
LINE
  5
55A
330
1F
100
AcDbEntity
  8
0
 62
     1
100
AcDbLine
 10
1049.907471729144
 20
4689.472687289923
 30
0.0
 11
1049.907471729144
 21
4659.472687289923
 31
0.0
  0
ARC
  5
55B
330
1F
100
AcDbEntity
  8
0
 62
     1
100
AcDbCircle
 10
1053.657471729144
 20
4689.472687289923
 30
0.0
 40
3.75
100
AcDbArc
 50
90.0
 51
180.0
  0
LINE
  5
55C
330
1F
100
AcDbEntity
  8
0
 62
     1
100
AcDbLine
 10
1053.657471729144
 20
4693.222687289924
 30
0.0
 11
1064.907471729144
 21
4693.222687289924
 31
0.0
  0
ARC
  5
55D
330
1F
100
AcDbEntity
  8
0
 62
     1
100
AcDbCircle
 10
1064.907471729144
 20
4689.472687289923
 30
0.0
 40
3.75
100
AcDbArc
 50
0.0
 51
90.0
  0
LINE
  5
55E
330
1F
100
AcDbEntity
  8
0
 62
     1
100
AcDbLine
 10
1068.657471729144
 20
4689.472687289923
 30
0.0
 11
1068.657471729144
 21
4659.472687289923
 31
0.0
  0
LINE
  5
55F
330
1F
100
AcDbEntity
  8
0
 62
     1
100
AcDbLine
 10
1053.657471729144
 20
4655.722687289923
 30
0.0
 11
1064.907471729144
 21
4655.722687289923
 31
0.0
  0
ARC
  5
560
330
1F
100
AcDbEntity
  8
0
 62
     1
100
AcDbCircle
 10
1064.907471729144
 20
4659.472687289923
 30
0.0
 40
3.75
100
AcDbArc
 50
270.0
 51
0.0
  0
LWPOLYLINE
  5
561
330
1F
100
AcDbEntity
  8
0
 62
     1
100
AcDbPolyline
 90
        8
 70
     1
 43
0.0
 10
1103.032471729144
 20
4729.472687289923
 10
1046.782471729144
 20
4729.472687289923
 42
0.4142135623730951
 10
1044.282471729144
 20
4726.972687289923
 10
1044.282471729144
 20
4651.972687289923
 42
0.4142135623730951
 10
1046.782471729144
 20
4649.472687289923
 10
1103.032471729144
 20
4649.472687289923
 42
0.4142135623730951
 10
1105.532471729144
 20
4651.972687289923
 10
1105.532471729144
 20
4726.972687289923
 42
0.4142135623730951
  0
LWPOLYLINE
  5
562
330
1F
100
AcDbEntity
  8
0
 62
     1
100
AcDbPolyline
 90
        8
 70
     1
 43
0.0
 10
1103.032471729144
 20
4733.222687289923
 10
1046.782471729144
 20
4733.222687289923
 42
0.4142135623730951
 10
1040.532471729144
 20
4726.972687289923
 10
1040.532471729144
 20
4651.972687289923
 42
0.4142135623730951
 10
1046.782471729144
 20
4645.722687289923
 10
1103.032471729144
 20
4645.722687289923
 42
0.4142135623730951
 10
1109.282471729144
 20
4651.972687289923
 10
1109.282471729144
 20
4726.972687289923
 42
0.4142135623730951
  0
LWPOLYLINE
  5
563
330
1F
100
AcDbEntity
  8
0
 62
     1
100
AcDbPolyline
 90
        8
 70
     1
 43
0.0
 10
1103.032471729144
 20
5164.210135590173
 10
1046.782471729144
 20
5164.210135590173
 42
0.4142135623730951
 10
1040.532471729144
 20
5157.960135590172
 10
1040.532471729144
 20
5082.960135590173
 42
0.4142135623730951
 10
1046.782471729144
 20
5076.710135590173
 10
1103.032471729144
 20
5076.710135590173
 42
0.4142135623730951
 10
1109.282471729144
 20
5082.960135590173
 10
1109.282471729144
 20
5157.960135590172
 42
0.4142135623730951
  0
LWPOLYLINE
  5
564
330
1F
100
AcDbEntity
  8
0
 62
     1
100
AcDbPolyline
 90
        8
 70
     1
 43
0.0
 10
1103.032471729144
 20
5160.460135590174
 10
1046.782471729144
 20
5160.460135590174
 42
0.4142135623730951
 10
1044.282471729144
 20
5157.960135590172
 10
1044.282471729144
 20
5082.960135590173
 42
0.4142135623730951
 10
1046.782471729144
 20
5080.460135590173
 10
1103.032471729144
 20
5080.460135590173
 42
0.4142135623730951
 10
1105.532471729144
 20
5082.960135590173
 10
1105.532471729144
 20
5157.960135590172
 42
0.4142135623730951
  0
ARC
  5
565
330
1F
100
AcDbEntity
  8
0
 62
     1
100
AcDbCircle
 10
1064.907471729144
 20
5090.460135590173
 30
0.0
 40
3.75
100
AcDbArc
 50
270.0
 51
0.0
  0
LINE
  5
566
330
1F
100
AcDbEntity
  8
0
 62
     1
100
AcDbLine
 10
1053.657471729144
 20
5086.710135590173
 30
0.0
 11
1064.907471729144
 21
5086.710135590173
 31
0.0
  0
LINE
  5
567
330
1F
100
AcDbEntity
  8
0
 62
     1
100
AcDbLine
 10
1068.657471729144
 20
5120.460135590173
 30
0.0
 11
1068.657471729144
 21
5090.460135590173
 31
0.0
  0
ARC
  5
568
330
1F
100
AcDbEntity
  8
0
 62
     1
100
AcDbCircle
 10
1064.907471729144
 20
5120.460135590173
 30
0.0
 40
3.75
100
AcDbArc
 50
0.0
 51
90.0
  0
LINE
  5
569
330
1F
100
AcDbEntity
  8
0
 62
     1
100
AcDbLine
 10
1053.657471729144
 20
5124.210135590173
 30
0.0
 11
1064.907471729144
 21
5124.210135590173
 31
0.0
  0
ARC
  5
56A
330
1F
100
AcDbEntity
  8
0
 62
     1
100
AcDbCircle
 10
1053.657471729144
 20
5120.460135590173
 30
0.0
 40
3.75
100
AcDbArc
 50
90.0
 51
180.0
  0
LINE
  5
56B
330
1F
100
AcDbEntity
  8
0
 62
     1
100
AcDbLine
 10
1049.907471729144
 20
5120.460135590173
 30
0.0
 11
1049.907471729144
 21
5090.460135590173
 31
0.0
  0
ARC
  5
56C
330
1F
100
AcDbEntity
  8
0
 62
     1
100
AcDbCircle
 10
1053.657471729144
 20
5090.460135590173
 30
0.0
 40
3.75
100
AcDbArc
 50
180.0
 51
270.0
  0
LINE
  5
56D
330
1F
100
AcDbEntity
  8
0
 62
     1
100
AcDbLine
 10
1064.907471729148
 20
5117.960135590173
 30
0.0
 11
1053.657471729148
 21
5117.960135590173
 31
0.0
  0
LINE
  5
56E
330
1F
100
AcDbEntity
  8
0
 62
     1
100
AcDbLine
 10
1064.907471729148
 20
5111.710135590173
 30
0.0
 11
1053.657471729148
 21
5111.710135590173
 31
0.0
  0
LINE
  5
56F
330
1F
100
AcDbEntity
  8
0
 62
     1
100
AcDbLine
 10
1064.907471729144
 20
5105.460135590173
 30
0.0
 11
1053.657471729144
 21
5105.460135590173
 31
0.0
  0
LINE
  5
570
330
1F
100
AcDbEntity
  8
0
 62
     1
100
AcDbLine
 10
1064.907471729144
 20
5099.210135590173
 30
0.0
 11
1053.657471729144
 21
5099.210135590173
 31
0.0
  0
LINE
  5
571
330
1F
100
AcDbEntity
  8
0
 62
     1
100
AcDbLine
 10
1064.907471729144
 20
5092.960135590173
 30
0.0
 11
1053.657471729144
 21
5092.960135590173
 31
0.0
  0
ARC
  5
572
330
1F
100
AcDbEntity
  8
0
 62
     1
100
AcDbCircle
 10
1096.157471729144
 20
5090.460135590173
 30
0.0
 40
3.75
100
AcDbArc
 50
270.0
 51
0.0
  0
LINE
  5
573
330
1F
100
AcDbEntity
  8
0
 62
     1
100
AcDbLine
 10
1099.907471729144
 20
5120.460135590173
 30
0.0
 11
1099.907471729144
 21
5090.460135590173
 31
0.0
  0
ARC
  5
574
330
1F
100
AcDbEntity
  8
0
 62
     1
100
AcDbCircle
 10
1096.157471729144
 20
5120.460135590173
 30
0.0
 40
3.75
100
AcDbArc
 50
0.0
 51
90.0
  0
LINE
  5
575
330
1F
100
AcDbEntity
  8
0
 62
     1
100
AcDbLine
 10
1096.157471729144
 20
5124.210135590173
 30
0.0
 11
1084.907471729144
 21
5124.210135590173
 31
0.0
  0
ARC
  5
576
330
1F
100
AcDbEntity
  8
0
 62
     1
100
AcDbCircle
 10
1084.907471729144
 20
5120.460135590173
 30
0.0
 40
3.75
100
AcDbArc
 50
90.0
 51
180.0
  0
LINE
  5
577
330
1F
100
AcDbEntity
  8
0
 62
     1
100
AcDbLine
 10
1081.157471729144
 20
5120.460135590173
 30
0.0
 11
1081.157471729144
 21
5090.460135590173
 31
0.0
  0
LINE
  5
578
330
1F
100
AcDbEntity
  8
0
 62
     1
100
AcDbLine
 10
1096.157471729144
 20
5086.710135590173
 30
0.0
 11
1084.907471729144
 21
5086.710135590173
 31
0.0
  0
ARC
  5
579
330
1F
100
AcDbEntity
  8
0
 62
     1
100
AcDbCircle
 10
1084.907471729144
 20
5090.460135590173
 30
0.0
 40
3.75
100
AcDbArc
 50
180.0
 51
270.0
  0
LINE
  5
57A
330
1F
100
AcDbEntity
  8
0
 62
     1
100
AcDbLine
 10
1096.157471729144
 20
5092.960135590173
 30
0.0
 11
1084.907471729144
 21
5092.960135590173
 31
0.0
  0
LINE
  5
57B
330
1F
100
AcDbEntity
  8
0
 62
     1
100
AcDbLine
 10
1096.157471729144
 20
5099.210135590173
 30
0.0
 11
1084.907471729144
 21
5099.210135590173
 31
0.0
  0
LINE
  5
57C
330
1F
100
AcDbEntity
  8
0
 62
     1
100
AcDbLine
 10
1096.157471729144
 20
5105.460135590173
 30
0.0
 11
1084.907471729144
 21
5105.460135590173
 31
0.0
  0
LINE
  5
57D
330
1F
100
AcDbEntity
  8
0
 62
     1
100
AcDbLine
 10
1096.157471729148
 20
5111.710135590173
 30
0.0
 11
1084.907471729148
 21
5111.710135590173
 31
0.0
  0
LINE
  5
57E
330
1F
100
AcDbEntity
  8
0
 62
     1
100
AcDbLine
 10
1096.157471729148
 20
5117.960135590173
 30
0.0
 11
1084.907471729148
 21
5117.960135590173
 31
0.0
  0
CIRCLE
  5
57F
330
1F
100
AcDbEntity
  8
0
 62
     1
100
AcDbCircle
 10
1074.907471729144
 20
5146.165855026215
 30
0.0
 40
10.0
  0
LWPOLYLINE
  5
580
330
1F
100
AcDbEntity
  8
0
 62
     1
100
AcDbPolyline
 90
        8
 70
     1
 43
0.0
 10
1214.885043243564
 20
5164.210135590173
 10
1158.635043243564
 20
5164.210135590173
 42
0.4142135623730951
 10
1152.385043243564
 20
5157.960135590172
 10
1152.385043243564
 20
5082.960135590173
 42
0.4142135623730951
 10
1158.635043243564
 20
5076.710135590173
 10
1214.885043243564
 20
5076.710135590173
 42
0.4142135623730951
 10
1221.135043243564
 20
5082.960135590173
 10
1221.135043243564
 20
5157.960135590172
 42
0.4142135623730951
  0
LWPOLYLINE
  5
581
330
1F
100
AcDbEntity
  8
0
 62
     1
100
AcDbPolyline
 90
        8
 70
     1
 43
0.0
 10
1214.885043243564
 20
5160.460135590174
 10
1158.635043243564
 20
5160.460135590174
 42
0.4142135623730951
 10
1156.135043243564
 20
5157.960135590172
 10
1156.135043243564
 20
5082.960135590173
 42
0.4142135623730951
 10
1158.635043243564
 20
5080.460135590173
 10
1214.885043243564
 20
5080.460135590173
 42
0.4142135623730951
 10
1217.385043243564
 20
5082.960135590173
 10
1217.385043243564
 20
5157.960135590172
 42
0.4142135623730951
  0
ARC
  5
582
330
1F
100
AcDbEntity
  8
0
 62
     1
100
AcDbCircle
 10
1176.760043243564
 20
5090.460135590173
 30
0.0
 40
3.75
100
AcDbArc
 50
270.0
 51
0.0
  0
LINE
  5
583
330
1F
100
AcDbEntity
  8
0
 62
     1
100
AcDbLine
 10
1165.510043243564
 20
5086.710135590173
 30
0.0
 11
1176.760043243564
 21
5086.710135590173
 31
0.0
  0
LINE
  5
584
330
1F
100
AcDbEntity
  8
0
 62
     1
100
AcDbLine
 10
1180.510043243565
 20
5120.460135590173
 30
0.0
 11
1180.510043243565
 21
5090.460135590173
 31
0.0
  0
ARC
  5
585
330
1F
100
AcDbEntity
  8
0
 62
     1
100
AcDbCircle
 10
1176.760043243564
 20
5120.460135590173
 30
0.0
 40
3.75
100
AcDbArc
 50
0.0
 51
90.0
  0
LINE
  5
586
330
1F
100
AcDbEntity
  8
0
 62
     1
100
AcDbLine
 10
1165.510043243564
 20
5124.210135590173
 30
0.0
 11
1176.760043243564
 21
5124.210135590173
 31
0.0
  0
ARC
  5
587
330
1F
100
AcDbEntity
  8
0
 62
     1
100
AcDbCircle
 10
1165.510043243564
 20
5120.460135590173
 30
0.0
 40
3.75
100
AcDbArc
 50
90.0
 51
180.0
  0
LINE
  5
588
330
1F
100
AcDbEntity
  8
0
 62
     1
100
AcDbLine
 10
1161.760043243565
 20
5120.460135590173
 30
0.0
 11
1161.760043243565
 21
5090.460135590173
 31
0.0
  0
ARC
  5
589
330
1F
100
AcDbEntity
  8
0
 62
     1
100
AcDbCircle
 10
1165.510043243564
 20
5090.460135590173
 30
0.0
 40
3.75
100
AcDbArc
 50
180.0
 51
270.0
  0
LINE
  5
58A
330
1F
100
AcDbEntity
  8
0
 62
     1
100
AcDbLine
 10
1176.760043243568
 20
5117.960135590173
 30
0.0
 11
1165.510043243568
 21
5117.960135590173
 31
0.0
  0
LINE
  5
58B
330
1F
100
AcDbEntity
  8
0
 62
     1
100
AcDbLine
 10
1176.760043243568
 20
5111.710135590173
 30
0.0
 11
1165.510043243568
 21
5111.710135590173
 31
0.0
  0
LINE
  5
58C
330
1F
100
AcDbEntity
  8
0
 62
     1
100
AcDbLine
 10
1176.760043243564
 20
5105.460135590173
 30
0.0
 11
1165.510043243564
 21
5105.460135590173
 31
0.0
  0
LINE
  5
58D
330
1F
100
AcDbEntity
  8
0
 62
     1
100
AcDbLine
 10
1176.760043243564
 20
5099.210135590173
 30
0.0
 11
1165.510043243564
 21
5099.210135590173
 31
0.0
  0
LINE
  5
58E
330
1F
100
AcDbEntity
  8
0
 62
     1
100
AcDbLine
 10
1176.760043243564
 20
5092.960135590173
 30
0.0
 11
1165.510043243564
 21
5092.960135590173
 31
0.0
  0
ARC
  5
58F
330
1F
100
AcDbEntity
  8
0
 62
     1
100
AcDbCircle
 10
1208.010043243565
 20
5090.460135590173
 30
0.0
 40
3.75
100
AcDbArc
 50
270.0
 51
0.0
  0
LINE
  5
590
330
1F
100
AcDbEntity
  8
0
 62
     1
100
AcDbLine
 10
1211.760043243565
 20
5120.460135590173
 30
0.0
 11
1211.760043243565
 21
5090.460135590173
 31
0.0
  0
ARC
  5
591
330
1F
100
AcDbEntity
  8
0
 62
     1
100
AcDbCircle
 10
1208.010043243565
 20
5120.460135590173
 30
0.0
 40
3.75
100
AcDbArc
 50
0.0
 51
90.0
  0
LINE
  5
592
330
1F
100
AcDbEntity
  8
0
 62
     1
100
AcDbLine
 10
1208.010043243565
 20
5124.210135590173
 30
0.0
 11
1196.760043243564
 21
5124.210135590173
 31
0.0
  0
ARC
  5
593
330
1F
100
AcDbEntity
  8
0
 62
     1
100
AcDbCircle
 10
1196.760043243564
 20
5120.460135590173
 30
0.0
 40
3.75
100
AcDbArc
 50
90.0
 51
180.0
  0
LINE
  5
594
330
1F
100
AcDbEntity
  8
0
 62
     1
100
AcDbLine
 10
1193.010043243565
 20
5120.460135590173
 30
0.0
 11
1193.010043243565
 21
5090.460135590173
 31
0.0
  0
LINE
  5
595
330
1F
100
AcDbEntity
  8
0
 62
     1
100
AcDbLine
 10
1208.010043243565
 20
5086.710135590173
 30
0.0
 11
1196.760043243564
 21
5086.710135590173
 31
0.0
  0
ARC
  5
596
330
1F
100
AcDbEntity
  8
0
 62
     1
100
AcDbCircle
 10
1196.760043243564
 20
5090.460135590173
 30
0.0
 40
3.75
100
AcDbArc
 50
180.0
 51
270.0
  0
LINE
  5
597
330
1F
100
AcDbEntity
  8
0
 62
     1
100
AcDbLine
 10
1208.010043243565
 20
5092.960135590173
 30
0.0
 11
1196.760043243564
 21
5092.960135590173
 31
0.0
  0
LINE
  5
598
330
1F
100
AcDbEntity
  8
0
 62
     1
100
AcDbLine
 10
1208.010043243565
 20
5099.210135590173
 30
0.0
 11
1196.760043243564
 21
5099.210135590173
 31
0.0
  0
LINE
  5
599
330
1F
100
AcDbEntity
  8
0
 62
     1
100
AcDbLine
 10
1208.010043243565
 20
5105.460135590173
 30
0.0
 11
1196.760043243564
 21
5105.460135590173
 31
0.0
  0
LINE
  5
59A
330
1F
100
AcDbEntity
  8
0
 62
     1
100
AcDbLine
 10
1208.010043243568
 20
5111.710135590173
 30
0.0
 11
1196.760043243568
 21
5111.710135590173
 31
0.0
  0
LINE
  5
59B
330
1F
100
AcDbEntity
  8
0
 62
     1
100
AcDbLine
 10
1208.010043243568
 20
5117.960135590173
 30
0.0
 11
1196.760043243568
 21
5117.960135590173
 31
0.0
  0
CIRCLE
  5
59C
330
1F
100
AcDbEntity
  8
0
 62
     1
100
AcDbCircle
 10
1186.760043243564
 20
5146.165855026215
 30
0.0
 40
10.0
  0
CIRCLE
  5
59D
330
1F
100
AcDbEntity
  8
0
 62
     1
100
AcDbCircle
 10
1297.510627600735
 20
5146.165855026215
 30
0.0
 40
10.0
  0
LINE
  5
59E
330
1F
100
AcDbEntity
  8
0
 62
     1
100
AcDbLine
 10
1318.760627600739
 20
5117.960135590173
 30
0.0
 11
1307.510627600739
 21
5117.960135590173
 31
0.0
  0
LINE
  5
59F
330
1F
100
AcDbEntity
  8
0
 62
     1
100
AcDbLine
 10
1318.760627600739
 20
5111.710135590173
 30
0.0
 11
1307.510627600739
 21
5111.710135590173
 31
0.0
  0
LINE
  5
5A0
330
1F
100
AcDbEntity
  8
0
 62
     1
100
AcDbLine
 10
1318.760627600735
 20
5105.460135590173
 30
0.0
 11
1307.510627600735
 21
5105.460135590173
 31
0.0
  0
LINE
  5
5A1
330
1F
100
AcDbEntity
  8
0
 62
     1
100
AcDbLine
 10
1318.760627600735
 20
5099.210135590173
 30
0.0
 11
1307.510627600735
 21
5099.210135590173
 31
0.0
  0
LINE
  5
5A2
330
1F
100
AcDbEntity
  8
0
 62
     1
100
AcDbLine
 10
1318.760627600735
 20
5092.960135590173
 30
0.0
 11
1307.510627600735
 21
5092.960135590173
 31
0.0
  0
ARC
  5
5A3
330
1F
100
AcDbEntity
  8
0
 62
     1
100
AcDbCircle
 10
1307.510627600735
 20
5090.460135590173
 30
0.0
 40
3.75
100
AcDbArc
 50
180.0
 51
270.0
  0
LINE
  5
5A4
330
1F
100
AcDbEntity
  8
0
 62
     1
100
AcDbLine
 10
1318.760627600735
 20
5086.710135590173
 30
0.0
 11
1307.510627600735
 21
5086.710135590173
 31
0.0
  0
LINE
  5
5A5
330
1F
100
AcDbEntity
  8
0
 62
     1
100
AcDbLine
 10
1303.760627600735
 20
5120.460135590173
 30
0.0
 11
1303.760627600735
 21
5090.460135590173
 31
0.0
  0
ARC
  5
5A6
330
1F
100
AcDbEntity
  8
0
 62
     1
100
AcDbCircle
 10
1307.510627600735
 20
5120.460135590173
 30
0.0
 40
3.75
100
AcDbArc
 50
90.0
 51
180.0
  0
LINE
  5
5A7
330
1F
100
AcDbEntity
  8
0
 62
     1
100
AcDbLine
 10
1318.760627600735
 20
5124.210135590173
 30
0.0
 11
1307.510627600735
 21
5124.210135590173
 31
0.0
  0
ARC
  5
5A8
330
1F
100
AcDbEntity
  8
0
 62
     1
100
AcDbCircle
 10
1318.760627600735
 20
5120.460135590173
 30
0.0
 40
3.75
100
AcDbArc
 50
0.0
 51
90.0
  0
LINE
  5
5A9
330
1F
100
AcDbEntity
  8
0
 62
     1
100
AcDbLine
 10
1322.510627600735
 20
5120.460135590173
 30
0.0
 11
1322.510627600735
 21
5090.460135590173
 31
0.0
  0
ARC
  5
5AA
330
1F
100
AcDbEntity
  8
0
 62
     1
100
AcDbCircle
 10
1318.760627600735
 20
5090.460135590173
 30
0.0
 40
3.75
100
AcDbArc
 50
270.0
 51
0.0
  0
LINE
  5
5AB
330
1F
100
AcDbEntity
  8
0
 62
     1
100
AcDbLine
 10
1287.510627600735
 20
5092.960135590173
 30
0.0
 11
1276.260627600735
 21
5092.960135590173
 31
0.0
  0
LINE
  5
5AC
330
1F
100
AcDbEntity
  8
0
 62
     1
100
AcDbLine
 10
1287.510627600735
 20
5099.210135590173
 30
0.0
 11
1276.260627600735
 21
5099.210135590173
 31
0.0
  0
LINE
  5
5AD
330
1F
100
AcDbEntity
  8
0
 62
     1
100
AcDbLine
 10
1287.510627600735
 20
5105.460135590173
 30
0.0
 11
1276.260627600735
 21
5105.460135590173
 31
0.0
  0
LINE
  5
5AE
330
1F
100
AcDbEntity
  8
0
 62
     1
100
AcDbLine
 10
1287.510627600739
 20
5111.710135590173
 30
0.0
 11
1276.260627600739
 21
5111.710135590173
 31
0.0
  0
LINE
  5
5AF
330
1F
100
AcDbEntity
  8
0
 62
     1
100
AcDbLine
 10
1287.510627600739
 20
5117.960135590173
 30
0.0
 11
1276.260627600739
 21
5117.960135590173
 31
0.0
  0
ARC
  5
5B0
330
1F
100
AcDbEntity
  8
0
 62
     1
100
AcDbCircle
 10
1276.260627600735
 20
5090.460135590173
 30
0.0
 40
3.75
100
AcDbArc
 50
180.0
 51
270.0
  0
LINE
  5
5B1
330
1F
100
AcDbEntity
  8
0
 62
     1
100
AcDbLine
 10
1272.510627600735
 20
5120.460135590173
 30
0.0
 11
1272.510627600735
 21
5090.460135590173
 31
0.0
  0
ARC
  5
5B2
330
1F
100
AcDbEntity
  8
0
 62
     1
100
AcDbCircle
 10
1276.260627600735
 20
5120.460135590173
 30
0.0
 40
3.75
100
AcDbArc
 50
90.0
 51
180.0
  0
LINE
  5
5B3
330
1F
100
AcDbEntity
  8
0
 62
     1
100
AcDbLine
 10
1276.260627600735
 20
5124.210135590173
 30
0.0
 11
1287.510627600735
 21
5124.210135590173
 31
0.0
  0
ARC
  5
5B4
330
1F
100
AcDbEntity
  8
0
 62
     1
100
AcDbCircle
 10
1287.510627600735
 20
5120.460135590173
 30
0.0
 40
3.75
100
AcDbArc
 50
0.0
 51
90.0
  0
LINE
  5
5B5
330
1F
100
AcDbEntity
  8
0
 62
     1
100
AcDbLine
 10
1291.260627600735
 20
5120.460135590173
 30
0.0
 11
1291.260627600735
 21
5090.460135590173
 31
0.0
  0
LINE
  5
5B6
330
1F
100
AcDbEntity
  8
0
 62
     1
100
AcDbLine
 10
1276.260627600735
 20
5086.710135590173
 30
0.0
 11
1287.510627600735
 21
5086.710135590173
 31
0.0
  0
ARC
  5
5B7
330
1F
100
AcDbEntity
  8
0
 62
     1
100
AcDbCircle
 10
1287.510627600735
 20
5090.460135590173
 30
0.0
 40
3.75
100
AcDbArc
 50
270.0
 51
0.0
  0
LWPOLYLINE
  5
5B8
330
1F
100
AcDbEntity
  8
0
 62
     1
100
AcDbPolyline
 90
        8
 70
     1
 43
0.0
 10
1325.635627600735
 20
5160.460135590174
 10
1269.385627600735
 20
5160.460135590174
 42
0.4142135623730951
 10
1266.885627600735
 20
5157.960135590172
 10
1266.885627600735
 20
5082.960135590173
 42
0.4142135623730951
 10
1269.385627600735
 20
5080.460135590173
 10
1325.635627600735
 20
5080.460135590173
 42
0.4142135623730951
 10
1328.135627600735
 20
5082.960135590173
 10
1328.135627600735
 20
5157.960135590172
 42
0.4142135623730951
  0
LWPOLYLINE
  5
5B9
330
1F
100
AcDbEntity
  8
0
 62
     1
100
AcDbPolyline
 90
        8
 70
     1
 43
0.0
 10
1325.635627600735
 20
5164.210135590173
 10
1269.385627600735
 20
5164.210135590173
 42
0.4142135623730951
 10
1263.135627600735
 20
5157.960135590172
 10
1263.135627600735
 20
5082.960135590173
 42
0.4142135623730951
 10
1269.385627600735
 20
5076.710135590173
 10
1325.635627600735
 20
5076.710135590173
 42
0.4142135623730951
 10
1331.885627600735
 20
5082.960135590173
 10
1331.885627600735
 20
5157.960135590172
 42
0.4142135623730951
  0
LINE
  5
5BA
330
1F
100
AcDbEntity
  8
SERR-INT
370
    15
100
AcDbLine
 10
2854.775670981004
 20
4900.861253726652
 30
0.0
 11
2742.301604821916
 21
4900.861253726652
 31
0.0
  0
ARC
  5
5BB
330
1F
100
AcDbEntity
  8
SERR-INT
370
    15
100
AcDbCircle
 10
2852.328815553992
 20
4900.861253726652
 30
0.0
 40
110.0272107320761
100
AcDbArc
 50
180.0
 51
274.1696146477071
  0
ARC
  5
5BC
330
1F
100
AcDbEntity
  8
SERR-INT
370
    15
100
AcDbCircle
 10
2541.926035191317
 20
4900.861253726652
 30
0.0
 40
80.00000000000182
100
AcDbArc
 50
90.0
 51
180.0
  0
LINE
  5
5BD
330
1F
100
AcDbEntity
  8
SERR-INT
370
    15
100
AcDbLine
 10
2541.926035191317
 20
4900.861253726652
 30
0.0
 11
2461.926035191315
 21
4900.861253726652
 31
0.0
  0
LINE
  5
5BE
330
1F
100
AcDbEntity
  8
MUR-EST
100
AcDbLine
 10
1597.328815553992
 20
5052.002520684986
 30
0.0
 11
1597.328815553992
 21
5039.664644375398
 31
0.0
  0
LINE
  5
5BF
330
1F
100
AcDbEntity
  8
MUR-EST
100
AcDbLine
 10
1597.328815553992
 20
5039.6646443754
 30
0.0
 11
1617.328815553992
 21
5039.6646443754
 31
0.0
  0
LINE
  5
5C0
330
1F
100
AcDbEntity
  8
MUR-EST
100
AcDbLine
 10
1507.328815553992
 20
5052.002520684986
 30
0.0
 11
1507.328815553992
 21
5039.664644375398
 31
0.0
  0
LINE
  5
5C1
330
1F
100
AcDbEntity
  8
SERR-EST
370
    15
100
AcDbLine
 10
1507.328815553992
 20
5052.002520684986
 30
0.0
 11
1597.328815553992
 21
5052.002520684986
 31
0.0
  0
LINE
  5
5C2
330
1F
100
AcDbEntity
  8
SERR-EST
370
    15
100
AcDbLine
 10
1597.328815553992
 20
5052.002520684986
 30
0.0
 11
1597.328815553992
 21
5142.002520684987
 31
0.0
  0
LINE
  5
5C3
330
1F
100
AcDbEntity
  8
MUR-EST
100
AcDbLine
 10
1597.328815553992
 20
5052.002520684986
 30
0.0
 11
1657.328815553992
 21
5052.002520684986
 31
0.0
  0
LINE
  5
5C4
330
1F
100
AcDbEntity
  8
MUR-EST
100
AcDbLine
 10
1657.328815553992
 20
5039.664644375398
 30
0.0
 11
1597.328815553992
 21
5039.6646443754
 31
0.0
  0
LINE
  5
5C5
330
1F
100
AcDbEntity
  8
MUR-EST
100
AcDbLine
 10
1467.328815553992
 20
5039.664644375398
 30
0.0
 11
1507.328815553992
 21
5039.664644375398
 31
0.0
  0
LINE
  5
5C6
330
1F
100
AcDbEntity
  8
MUR-EST
100
AcDbLine
 10
1368.364731662917
 20
5039.664644375398
 30
0.0
 11
1507.328815553992
 21
5039.664644375399
 31
0.0
  0
LINE
  5
5C7
330
1F
100
AcDbEntity
  8
MUR-EST
100
AcDbLine
 10
1368.364731662917
 20
5052.002520684986
 30
0.0
 11
1507.328815553992
 21
5052.002520684986
 31
0.0
  0
ARC
  5
5C8
330
1F
100
AcDbEntity
  8
SERR-EST
370
    15
100
AcDbCircle
 10
1597.328815553992
 20
5052.002520684986
 30
0.0
 40
89.99999999999985
100
AcDbArc
 50
90.0
 51
180.0
  0
LINE
  5
5C9
330
1F
100
AcDbEntity
  8
MUR-EST
100
AcDbLine
 10
2837.403886987067
 20
2579.611355856973
 30
0.0
 11
2837.403886987066
 21
2540.753825294746
 31
0.0
  0
LINE
  5
5CA
330
1F
100
AcDbEntity
  8
MUR-EST
100
AcDbLine
 10
2867.403886987068
 20
2579.611355856973
 30
0.0
 11
2867.403886987068
 21
2540.753825294746
 31
0.0
  0
LINE
  5
5CB
330
1F
100
AcDbEntity
  8
MUR-EST
100
AcDbLine
 10
2867.403886987068
 20
2750.753825294746
 30
0.0
 11
2867.403886987068
 21
2699.611355856973
 31
0.0
  0
LINE
  5
5CC
330
1F
100
AcDbEntity
  8
MUR-EST
100
AcDbLine
 10
2837.267568948315
 20
2750.753825294746
 30
0.0
 11
2837.328815553992
 21
2700.081106618525
 31
0.0
  0
LINE
  5
5CD
330
1F
100
AcDbEntity
  8
MUR-EST
100
AcDbLine
 10
2867.403886987068
 20
2510.628390392711
 30
0.0
 11
2867.403886987068
 21
2456.957385277711
 31
0.0
  0
LINE
  5
5CE
330
1F
100
AcDbEntity
  8
MUR-EST
100
AcDbLine
 10
2837.403886987067
 20
2510.628390392711
 30
0.0
 11
2837.328815553992
 21
2457.427136039262
 31
0.0
  0
LINE
  5
5CF
330
1F
100
AcDbEntity
  8
MUR-EST
100
AcDbLine
 10
2837.403886987067
 20
2336.957385277711
 30
0.0
 11
2837.403886987066
 21
2298.099854715484
 31
0.0
  0
LINE
  5
5D0
330
1F
100
AcDbEntity
  8
MUR-EST
100
AcDbLine
 10
2867.403886987068
 20
2293.642185179981
 30
0.0
 11
2867.403886987068
 21
2336.957385277711
 31
0.0
  0
LINE
  5
5D1
330
1F
100
AcDbEntity
  8
MUR-EST
100
AcDbLine
 10
2837.328815553992
 20
2457.427136039262
 30
0.0
 11
2837.328815553992
 21
2456.957385277709
 31
0.0
  0
LINE
  5
5D2
330
1F
100
AcDbEntity
  8
MUR-EST
100
AcDbLine
 10
2837.328815553989
 20
2456.957385277709
 30
0.0
 11
2867.328815553992
 21
2456.957385277711
 31
0.0
  0
LINE
  5
5D3
330
1F
100
AcDbEntity
  8
MUR-EST
100
AcDbLine
 10
2867.403886987068
 20
2336.957385277711
 30
0.0
 11
2837.403886987067
 21
2336.957385277711
 31
0.0
  0
LINE
  5
5D4
330
1F
100
AcDbEntity
  8
SERR-EST
370
    15
100
AcDbLine
 10
2820.235014034368
 20
2396.95738527771
 30
0.0
 11
2896.233424817003
 21
2396.95738527771
 31
0.0
  0
LINE
  5
5D5
330
1F
100
AcDbEntity
  8
SERR-EST
370
    15
100
AcDbLine
 10
2867.403886987068
 20
2456.957385277711
 30
0.0
 11
2867.403886987068
 21
2336.957385277711
 31
0.0
  0
LINE
  5
5D6
330
1F
100
AcDbEntity
  8
SERR-EST
370
    15
100
AcDbLine
 10
2859.903886987068
 20
2456.957385277711
 30
0.0
 11
2859.903886987066
 21
2336.957385277711
 31
0.0
  0
LINE
  5
5D7
330
1F
100
AcDbEntity
  8
SERR-EST
370
    15
100
AcDbLine
 10
2852.403886987066
 20
2456.957385277711
 30
0.0
 11
2852.403886987066
 21
2336.957385277711
 31
0.0
  0
LINE
  5
5D8
330
1F
100
AcDbEntity
  8
SERR-EST
370
    15
100
AcDbLine
 10
2837.403886987067
 20
2456.957385277711
 30
0.0
 11
2837.403886987067
 21
2336.957385277711
 31
0.0
  0
LINE
  5
5D9
330
1F
100
AcDbEntity
  8
MUR-EST
100
AcDbLine
 10
2837.328815553989
 20
2699.611355856971
 30
0.0
 11
2867.328815553992
 21
2699.611355856973
 31
0.0
  0
LINE
  5
5DA
330
1F
100
AcDbEntity
  8
MUR-EST
100
AcDbLine
 10
2837.328815553992
 20
2700.081106618525
 30
0.0
 11
2837.328815553992
 21
2699.611355856971
 31
0.0
  0
LINE
  5
5DB
330
1F
100
AcDbEntity
  8
MUR-EST
100
AcDbLine
 10
2867.403886987068
 20
2579.611355856973
 30
0.0
 11
2837.403886987067
 21
2579.611355856973
 31
0.0
  0
LINE
  5
5DC
330
1F
100
AcDbEntity
  8
SERR-EST
370
    15
100
AcDbLine
 10
2837.403886987067
 20
2699.611355856973
 30
0.0
 11
2837.403886987067
 21
2579.611355856973
 31
0.0
  0
LINE
  5
5DD
330
1F
100
AcDbEntity
  8
SERR-EST
370
    15
100
AcDbLine
 10
2852.403886987066
 20
2699.611355856973
 30
0.0
 11
2852.403886987066
 21
2579.611355856973
 31
0.0
  0
LINE
  5
5DE
330
1F
100
AcDbEntity
  8
SERR-EST
370
    15
100
AcDbLine
 10
2859.903886987068
 20
2699.611355856973
 30
0.0
 11
2859.903886987066
 21
2579.611355856973
 31
0.0
  0
LINE
  5
5DF
330
1F
100
AcDbEntity
  8
SERR-EST
370
    15
100
AcDbLine
 10
2867.403886987068
 20
2699.611355856973
 30
0.0
 11
2867.403886987068
 21
2579.611355856973
 31
0.0
  0
LINE
  5
5E0
330
1F
100
AcDbEntity
  8
SERR-EST
370
    15
100
AcDbLine
 10
2820.235014034368
 20
2639.611355856973
 30
0.0
 11
2896.233424817003
 21
2639.611355856973
 31
0.0
  0
LINE
  5
5E1
330
1F
100
AcDbEntity
  8
MUR-EST
100
AcDbLine
 10
2837.403886987067
 20
2826.390307916682
 30
0.0
 11
2837.267568948313
 21
2781.02270156893
 31
0.0
  0
LINE
  5
5E2
330
1F
100
AcDbEntity
  8
MUR-EST
100
AcDbLine
 10
2867.403886987068
 20
2826.390307916682
 30
0.0
 11
2867.267568948315
 21
2781.02270156893
 31
0.0
  0
LINE
  5
5E3
330
1F
100
AcDbEntity
  8
MUR-EST
100
AcDbLine
 10
2837.328815553992
 20
2946.860058678233
 30
0.0
 11
2837.328815553992
 21
2946.390307916681
 31
0.0
  0
LINE
  5
5E4
330
1F
100
AcDbEntity
  8
MUR-EST
100
AcDbLine
 10
2837.328815553989
 20
2946.390307916681
 30
0.0
 11
2867.328815553992
 21
2946.390307916681
 31
0.0
  0
LINE
  5
5E5
330
1F
100
AcDbEntity
  8
MUR-EST
100
AcDbLine
 10
2867.403886987068
 20
2826.390307916682
 30
0.0
 11
2837.403886987067
 21
2826.390307916682
 31
0.0
  0
LINE
  5
5E6
330
1F
100
AcDbEntity
  8
SERR-EST
370
    15
100
AcDbLine
 10
2867.403886987068
 20
2946.390307916681
 30
0.0
 11
2867.403886987068
 21
2826.390307916682
 31
0.0
  0
LINE
  5
5E7
330
1F
100
AcDbEntity
  8
SERR-EST
370
    15
100
AcDbLine
 10
2859.903886987068
 20
2946.390307916681
 30
0.0
 11
2859.903886987066
 21
2826.390307916682
 31
0.0
  0
LINE
  5
5E8
330
1F
100
AcDbEntity
  8
SERR-EST
370
    15
100
AcDbLine
 10
2852.403886987066
 20
2946.390307916681
 30
0.0
 11
2852.403886987066
 21
2826.390307916682
 31
0.0
  0
LINE
  5
5E9
330
1F
100
AcDbEntity
  8
SERR-EST
370
    15
100
AcDbLine
 10
2837.403886987067
 20
2946.390307916681
 30
0.0
 11
2837.403886987067
 21
2826.390307916682
 31
0.0
  0
LINE
  5
5EA
330
1F
100
AcDbEntity
  8
SERR-EST
370
    15
100
AcDbLine
 10
2820.235014034368
 20
2886.390307916681
 30
0.0
 11
2896.233424817003
 21
2886.390307916681
 31
0.0
  0
LINE
  5
5EB
330
1F
100
AcDbEntity
  8
SERR-EST
370
    15
100
AcDbLine
 10
2820.235014034368
 20
3155.861253726655
 30
0.0
 11
2896.233424817003
 21
3155.861253726655
 31
0.0
  0
LINE
  5
5EC
330
1F
100
AcDbEntity
  8
MUR-EST
100
AcDbLine
 10
2867.403886987068
 20
3095.861253726655
 30
0.0
 11
2837.403886987067
 21
3095.861253726655
 31
0.0
  0
LINE
  5
5ED
330
1F
100
AcDbEntity
  8
MUR-EST
100
AcDbLine
 10
2867.328815553991
 20
3095.861253726655
 30
0.0
 11
2867.328815553994
 21
2946.390307916681
 31
0.0
  0
LINE
  5
5EE
330
1F
100
AcDbEntity
  8
MUR-EST
100
AcDbLine
 10
2837.403886987067
 20
3095.861253726655
 30
0.0
 11
2837.328815553992
 21
2946.860058678233
 31
0.0
  0
LINE
  5
5EF
330
1F
100
AcDbEntity
  8
LINEA-SEZIO
100
AcDbLine
 10
1895.59667631368
 20
658.9996784716276
 30
0.0
 11
1895.596676313681
 21
798.5489090373711
 31
0.0
  0
LWPOLYLINE
  5
5F0
330
1F
100
AcDbEntity
  8
LINEA-SEZIO
 62
     3
100
AcDbPolyline
 90
        3
 70
     1
 43
0.0
 10
1880.037365111011
 20
661.0250846528282
 10
1880.037365111011
 20
741.9624533531135
 10
1861.159122066283
 20
701.4937690029709
  0
SOLID
  5
5F1
330
1F
100
AcDbEntity
  8
LINEA-SEZIO
 62
     3
100
AcDbTrace
 10
1880.037365111011
 20
741.962453353114
 30
0.0
 11
1861.159122066283
 21
701.4937690029709
 31
0.0
 12
1880.037365111011
 22
661.0250846528278
 32
0.0
 13
1880.037365111011
 23
661.0250846528278
 33
0.0
  0
TEXT
  5
5F2
330
1F
100
AcDbEntity
  8
LINEA-SEZIO
 62
     3
100
AcDbText
 10
1894.754529851518
 20
616.7781106970035
 30
0.0
 40
35.0
  1
A
 50
90.0
  7
ROMANC
 72
     4
 11
1877.254529851518
 21
633.4447773636701
 31
0.0
100
AcDbText
  0
TEXT
  5
5F3
330
1F
100
AcDbEntity
  8
LINEA-SEZIO
 62
     3
100
AcDbText
 10
1832.887704439386
 20
5372.733967310854
 30
0.0
 40
35.0
  1
A
 50
90.0
  7
ROMANC
 72
     4
 11
1815.387704439386
 21
5389.400633977522
 31
0.0
100
AcDbText
  0
SOLID
  5
5F4
330
1F
100
AcDbEntity
  8
LINEA-SEZIO
 62
     3
100
AcDbTrace
 10
1818.170539698878
 20
5365.479768798982
 30
0.0
 11
1799.292296654151
 21
5325.01108444884
 31
0.0
 12
1818.170539698878
 22
5284.542400098696
 32
0.0
 13
1818.170539698878
 23
5284.542400098696
 33
0.0
  0
LWPOLYLINE
  5
5F5
330
1F
100
AcDbEntity
  8
LINEA-SEZIO
 62
     3
100
AcDbPolyline
 90
        3
 70
     1
 43
0.0
 10
1818.170539698878
 20
5284.542400098696
 10
1818.170539698878
 20
5365.479768798982
 10
1799.29229665415
 20
5325.01108444884
  0
LINE
  5
5F6
330
1F
100
AcDbEntity
  8
LINEA-SEZIO
100
AcDbLine
 10
1833.729850901548
 20
5225.142908373478
 30
0.0
 11
1833.729850901549
 21
5364.692138939222
 31
0.0
  0
LINE
  5
5F7
330
1F
100
AcDbEntity
  8
MUR-EST
100
AcDbLine
 10
1837.328815553992
 20
3922.806799034236
 30
0.0
 11
1837.328815553992
 21
4012.806799034236
 31
0.0
  0
LINE
  5
5F8
330
1F
100
AcDbEntity
  8
MUR-EST
100
AcDbLine
 10
1867.328815553994
 20
4012.806799034236
 30
0.0
 11
1867.328815553994
 21
3922.806799034236
 31
0.0
  0
LINE
  5
5F9
330
1F
100
AcDbEntity
  8
MUR-EST
100
AcDbLine
 10
1867.328815553994
 20
3922.806799034236
 30
0.0
 11
1867.328815553994
 21
3380.861253726653
 31
0.0
  0
LINE
  5
5FA
330
1F
100
AcDbEntity
  8
MUR-EST
100
AcDbLine
 10
1837.328815553992
 20
3922.806799034236
 30
0.0
 11
1837.328815553992
 21
3231.499720429957
 31
0.0
  0
LINE
  5
5FB
330
1F
100
AcDbEntity
  8
MUR-EST
100
AcDbLine
 10
1657.328815553992
 20
4740.861253726652
 30
0.0
 11
1597.328815553992
 21
4740.861253726654
 31
0.0
  0
LINE
  5
5FC
330
1F
100
AcDbEntity
  8
SCALE
370
    15
100
AcDbLine
 10
2957.328815553991
 20
3901.752047007137
 30
0.0
 11
2957.328815553993
 21
4070.861253726655
 31
0.0
  0
LINE
  5
5FD
330
1F
100
AcDbEntity
  8
SCALE
370
    15
100
AcDbLine
 10
2926.779073646757
 20
2143.642185179984
 30
0.0
 11
2946.472499147056
 21
2113.559569504773
 31
0.0
  0
ARC
  5
5FE
330
1F
100
AcDbEntity
  8
SERR-EST
370
    15
100
AcDbCircle
 10
2853.32881555399
 20
4679.264217542471
 30
0.0
 40
96.163477878491
100
AcDbArc
 50
270.0
 51
0.0
  0
LINE
  5
5FF
330
1F
100
AcDbEntity
  8
MUR-EST
100
AcDbLine
 10
2837.328815553992
 20
4680.861253726651
 30
0.0
 11
2867.328815553992
 21
4680.861253726652
 31
0.0
  0
LINE
  5
600
330
1F
100
AcDbEntity
  8
SERR-INT
370
    15
100
AcDbLine
 10
2732.328815553993
 20
4071.555763847203
 30
0.0
 11
2732.328815553993
 21
4119.716066059155
 31
0.0
  0
LINE
  5
601
330
1F
100
AcDbEntity
  8
SERR-INT
370
    15
100
AcDbLine
 10
2777.328815553993
 20
4094.277107858164
 30
0.0
 11
2777.328815553993
 21
4184.277107858164
 31
0.0
  0
ARC
  5
602
330
1F
100
AcDbEntity
  8
SERR-INT
370
    15
100
AcDbCircle
 10
2777.328815553993
 20
4094.277107858164
 30
0.0
 40
90.0
100
AcDbArc
 50
90.0
 51
180.0
  0
LINE
  5
603
330
1F
100
AcDbEntity
  8
SCALE
370
    15
100
AcDbLine
 10
2797.328815553993
 20
4027.692961989675
 30
0.0
 11
2797.328815553993
 21
4080.861253726652
 31
0.0
  0
LINE
  5
604
330
1F
100
AcDbEntity
  8
SCALE
370
    15
100
AcDbLine
 10
2732.328815553993
 20
4087.692961989676
 30
0.0
 11
2732.328815553993
 21
4027.692961989675
 31
0.0
  0
LINE
  5
605
330
1F
100
AcDbEntity
  8
SCALE
370
    15
100
AcDbLine
 10
2732.328815553993
 20
4087.692961989676
 30
0.0
 11
2752.385754217
 21
4057.945145259886
 31
0.0
  0
LINE
  5
606
330
1F
100
AcDbEntity
  8
SCALE
370
    15
100
AcDbLine
 10
2732.328815553993
 20
4087.692961989676
 30
0.0
 11
2709.948076644939
 21
4057.945145259886
 31
0.0
  0
LINE
  5
607
330
1F
100
AcDbEntity
  8
SCALE
370
    15
100
AcDbLine
 10
2666.090504812463
 20
4027.692961989675
 30
0.0
 11
2666.090504812463
 21
4080.861253726653
 31
0.0
  0
LINE
  5
608
330
1F
100
AcDbEntity
  8
SCALE
370
    15
100
AcDbLine
 10
2666.090504812463
 20
4057.692961989675
 30
0.0
 11
2797.328815553993
 21
4057.692961989675
 31
0.0
  0
LINE
  5
609
330
1F
100
AcDbEntity
  8
SCALE
370
    15
100
AcDbLine
 10
2666.090504812463
 20
4027.692961989675
 30
0.0
 11
2797.328815553993
 21
4027.692961989675
 31
0.0
  0
LINE
  5
60A
330
1F
100
AcDbEntity
  8
ASSI-PIL
370
    15
100
AcDbLine
 10
2207.328815553992
 20
2873.786218631732
 30
0.0
 11
2207.328815553992
 21
2819.014512197147
 31
0.0
  0
LINE
  5
60B
330
1F
100
AcDbEntity
  8
MUR-EST
100
AcDbLine
 10
2187.328815553992
 20
2862.861253726654
 30
0.0
 11
2227.328815553992
 21
2862.861253726654
 31
0.0
  0
LINE
  5
60C
330
1F
100
AcDbEntity
  8
MUR-EST
100
AcDbLine
 10
2187.328815553992
 20
2862.861253726654
 30
0.0
 11
2187.328815553992
 21
2832.861253726654
 31
0.0
  0
LINE
  5
60D
330
1F
100
AcDbEntity
  8
MUR-EST
100
AcDbLine
 10
2187.328815553992
 20
2832.861253726654
 30
0.0
 11
2227.328815553993
 21
2832.861253726654
 31
0.0
  0
LINE
  5
60E
330
1F
100
AcDbEntity
  8
MUR-EST
100
AcDbLine
 10
2227.328815553992
 20
2862.861253726654
 30
0.0
 11
2227.328815553993
 21
2832.861253726654
 31
0.0
  0
LINE
  5
60F
330
1F
100
AcDbEntity
  8
ASSI-PIL
370
    15
100
AcDbLine
 10
2237.328815553992
 20
2847.888972593527
 30
0.0
 11
2177.328815553992
 21
2847.888972593527
 31
0.0
  0
LINE
  5
610
330
1F
100
AcDbEntity
  8
ASSI-PIL
370
    15
100
AcDbLine
 10
2207.328815553992
 20
2559.786218631732
 30
0.0
 11
2207.328815553992
 21
2505.014512197147
 31
0.0
  0
LINE
  5
611
330
1F
100
AcDbEntity
  8
MUR-EST
100
AcDbLine
 10
2187.328815553992
 20
2548.861253726654
 30
0.0
 11
2227.328815553992
 21
2548.861253726654
 31
0.0
  0
LINE
  5
612
330
1F
100
AcDbEntity
  8
MUR-EST
100
AcDbLine
 10
2187.328815553992
 20
2548.861253726654
 30
0.0
 11
2187.328815553992
 21
2518.861253726654
 31
0.0
  0
LINE
  5
613
330
1F
100
AcDbEntity
  8
MUR-EST
100
AcDbLine
 10
2187.328815553992
 20
2518.861253726654
 30
0.0
 11
2227.328815553993
 21
2518.861253726654
 31
0.0
  0
LINE
  5
614
330
1F
100
AcDbEntity
  8
MUR-EST
100
AcDbLine
 10
2227.328815553992
 20
2548.861253726654
 30
0.0
 11
2227.328815553993
 21
2518.861253726654
 31
0.0
  0
LINE
  5
615
330
1F
100
AcDbEntity
  8
ASSI-PIL
370
    15
100
AcDbLine
 10
2237.328815553992
 20
2533.888972593527
 30
0.0
 11
2177.328815553992
 21
2533.888972593527
 31
0.0
  0
LINE
  5
616
330
1F
100
AcDbEntity
  8
MUR-EST
100
AcDbLine
 10
2187.328815553993
 20
2234.861253726654
 30
0.0
 11
2227.328815553994
 21
2234.861253726654
 31
0.0
  0
LINE
  5
617
330
1F
100
AcDbEntity
  8
MUR-EST
100
AcDbLine
 10
2187.328815553993
 20
2204.861253726654
 30
0.0
 11
2227.328815553994
 21
2204.861253726654
 31
0.0
  0
LINE
  5
618
330
1F
100
AcDbEntity
  8
SERR-EST
370
    15
100
AcDbLine
 10
2814.277795211347
 20
3564.762272921222
 30
0.0
 11
2887.263731113637
 21
3564.762272921222
 31
0.0
  0
LINE
  5
619
330
1F
100
AcDbEntity
  8
SERR-EST
370
    15
100
AcDbLine
 10
2814.277795211348
 20
3900.861253726654
 30
0.0
 11
2887.263731113639
 21
3900.861253726654
 31
0.0
  0
LINE
  5
61A
330
1F
100
AcDbEntity
  8
ASSI-PIL
370
    15
100
AcDbLine
 10
2165.553381027757
 20
3770.921017278027
 30
0.0
 11
2082.754745102953
 21
3770.921017278027
 31
0.0
  0
LINE
  5
61B
330
1F
100
AcDbEntity
  8
ASSI-PIL
370
    15
100
AcDbLine
 10
2122.478376385924
 20
3822.620950135259
 30
0.0
 11
2122.478376385924
 21
3717.475372402242
 31
0.0
  0
LINE
  5
61C
330
1F
100
AcDbEntity
  8
MUR-EST
100
AcDbLine
 10
2107.328815553993
 20
3755.861253726652
 30
0.0
 11
2137.328815553994
 21
3755.861253726652
 31
0.0
  0
LINE
  5
61D
330
1F
100
AcDbEntity
  8
MUR-EST
100
AcDbLine
 10
2137.328815553993
 20
3785.861253726652
 30
0.0
 11
2137.328815553993
 21
3755.861253726652
 31
0.0
  0
LINE
  5
61E
330
1F
100
AcDbEntity
  8
MUR-EST
100
AcDbLine
 10
2107.328815553993
 20
3785.861253726652
 30
0.0
 11
2137.328815553994
 21
3785.861253726652
 31
0.0
  0
LINE
  5
61F
330
1F
100
AcDbEntity
  8
MUR-EST
100
AcDbLine
 10
2107.328815553993
 20
3785.861253726652
 30
0.0
 11
2107.328815553993
 21
3755.861253726652
 31
0.0
  0
LINE
  5
620
330
1F
100
AcDbEntity
  8
SERR-EST
370
    15
100
AcDbLine
 10
976.6856328812956
 20
4265.861253726654
 30
0.0
 11
1052.68404366393
 21
4265.861253726654
 31
0.0
  0
LINE
  5
621
330
1F
100
AcDbEntity
  8
MUR-EST
100
AcDbLine
 10
1027.328815553993
 20
4205.861253726653
 30
0.0
 11
997.328815553994
 21
4205.861253726653
 31
0.0
  0
LINE
  5
622
330
1F
100
AcDbEntity
  8
SERR-EST
370
    15
100
AcDbLine
 10
976.6856328812956
 20
3875.861253726654
 30
0.0
 11
1052.68404366393
 21
3875.861253726654
 31
0.0
  0
LINE
  5
623
330
1F
100
AcDbEntity
  8
SERR-EST
370
    15
100
AcDbLine
 10
976.6856328812956
 20
3575.861253726654
 30
0.0
 11
1052.68404366393
 21
3575.861253726654
 31
0.0
  0
LINE
  5
624
330
1F
100
AcDbEntity
  8
MUR-EST
100
AcDbLine
 10
997.328815553994
 20
3740.793195373492
 30
0.0
 11
997.3288155539931
 21
3815.861253726654
 31
0.0
  0
LINE
  5
625
330
1F
100
AcDbEntity
  8
MUR-EST
100
AcDbLine
 10
997.328815553994
 20
3635.861253726655
 30
0.0
 11
997.328815553994
 21
3710.793195373493
 31
0.0
  0
LINE
  5
626
330
1F
100
AcDbEntity
  8
MUR-EST
100
AcDbLine
 10
1027.328815553993
 20
3710.793195373494
 30
0.0
 11
1027.328815553993
 21
3635.861253726655
 31
0.0
  0
LINE
  5
627
330
1F
100
AcDbEntity
  8
MUR-EST
100
AcDbLine
 10
1027.328815553993
 20
3740.793195373492
 30
0.0
 11
1027.328815553993
 21
3815.861253726654
 31
0.0
  0
LINE
  5
628
330
1F
100
AcDbEntity
  8
MUR-EST
100
AcDbLine
 10
997.3288155539931
 20
3815.861253726654
 30
0.0
 11
1027.328815553993
 21
3815.861253726654
 31
0.0
  0
LINE
  5
629
330
1F
100
AcDbEntity
  8
MUR-EST
100
AcDbLine
 10
997.328815553994
 20
3635.861253726655
 30
0.0
 11
1027.328815553992
 21
3635.861253726655
 31
0.0
  0
LINE
  5
62A
330
1F
100
AcDbEntity
  8
SERR-EST
370
    15
100
AcDbLine
 10
976.6856328812956
 20
3155.861253726655
 30
0.0
 11
1052.68404366393
 21
3155.861253726655
 31
0.0
  0
LINE
  5
62B
330
1F
100
AcDbEntity
  8
MUR-EST
100
AcDbLine
 10
997.328815553994
 20
3095.861253726655
 30
0.0
 11
997.328815553994
 21
3021.02270156893
 31
0.0
  0
LINE
  5
62C
330
1F
100
AcDbEntity
  8
MUR-EST
100
AcDbLine
 10
1027.328815553993
 20
3095.861253726655
 30
0.0
 11
1027.328815553993
 21
3021.02270156893
 31
0.0
  0
LINE
  5
62D
330
1F
100
AcDbEntity
  8
MUR-EST
100
AcDbLine
 10
997.328815553994
 20
3095.861253726655
 30
0.0
 11
1027.328815553993
 21
3095.861253726655
 31
0.0
  0
LINE
  5
62E
330
1F
100
AcDbEntity
  8
MUR-EST
100
AcDbLine
 10
3008.671213097803
 20
2210.901325931828
 30
0.0
 11
3017.328815553993
 21
2210.901325931828
 31
0.0
  0
LINE
  5
62F
330
1F
100
AcDbEntity
  8
SERR-EST
370
    15
100
AcDbLine
 10
976.6856328812956
 20
2855.861253726655
 30
0.0
 11
1052.68404366393
 21
2855.861253726655
 31
0.0
  0
LINE
  5
630
330
1F
100
AcDbEntity
  8
SERR-EST
370
    15
100
AcDbLine
 10
2851.81941918514
 20
1733.531690794032
 30
0.0
 11
2921.648982117762
 21
1733.531690794032
 31
0.0
  0
ARC
  5
631
330
1F
100
AcDbEntity
  8
SERR-EST
370
    15
100
AcDbCircle
 10
2851.81941918514
 20
1733.531690794032
 30
0.0
 40
69.82956293262152
100
AcDbArc
 50
0.0
 51
90.0
  0
ARC
  5
632
330
1F
100
AcDbEntity
  8
SERR-EST
370
    15
100
AcDbCircle
 10
2851.81941918514
 20
1873.190816659275
 30
0.0
 40
69.82956293262152
100
AcDbArc
 50
270.0
 51
0.0
  0
LINE
  5
633
330
1F
100
AcDbEntity
  8
SERR-EST
370
    15
100
AcDbLine
 10
2851.81941918514
 20
1873.190816659275
 30
0.0
 11
2921.648982117762
 21
1873.190816659275
 31
0.0
  0
LINE
  5
634
330
1F
100
AcDbEntity
  8
SERR-EST
370
    15
100
AcDbLine
 10
2851.81941918514
 20
1875.861253726653
 30
0.0
 11
2851.81941918514
 21
1730.861253726654
 31
0.0
  0
LINE
  5
635
330
1F
100
AcDbEntity
  8
MUR-EST
100
AcDbLine
 10
2837.328815553992
 20
1730.861253726654
 30
0.0
 11
2837.328815553992
 21
1570.861253726653
 31
0.0
  0
LINE
  5
636
330
1F
100
AcDbEntity
  8
MUR-EST
100
AcDbLine
 10
2867.328815553994
 20
1730.861253726654
 30
0.0
 11
2867.328815553994
 21
1570.861253726653
 31
0.0
  0
LINE
  5
637
330
1F
100
AcDbEntity
  8
MUR-EST
100
AcDbLine
 10
2867.328815553994
 20
1875.861253726653
 30
0.0
 11
2837.328815553992
 21
1875.861253726653
 31
0.0
  0
LINE
  5
638
330
1F
100
AcDbEntity
  8
MUR-EST
100
AcDbLine
 10
2867.328815553994
 20
1730.861253726654
 30
0.0
 11
2837.328815553992
 21
1730.861253726654
 31
0.0
  0
LINE
  5
639
330
1F
100
AcDbEntity
  8
SERR-EST
370
    15
100
AcDbLine
 10
1467.14321800942
 20
1540.876468421493
 30
0.0
 11
1587.14321800942
 21
1540.876468421492
 31
0.0
  0
LINE
  5
63A
330
1F
100
AcDbEntity
  8
SERR-EST
370
    15
100
AcDbLine
 10
1467.14321800942
 20
1548.376468421493
 30
0.0
 11
1587.14321800942
 21
1548.376468421493
 31
0.0
  0
LINE
  5
63B
330
1F
100
AcDbEntity
  8
SERR-EST
370
    15
100
AcDbLine
 10
1527.14321800942
 20
1520.233285748795
 30
0.0
 11
1527.14321800942
 21
1596.231696531429
 31
0.0
  0
LINE
  5
63C
330
1F
100
AcDbEntity
  8
SERR-EST
370
    15
100
AcDbLine
 10
1467.14321800942
 20
1555.876468421494
 30
0.0
 11
1587.14321800942
 21
1555.876468421494
 31
0.0
  0
LINE
  5
63D
330
1F
100
AcDbEntity
  8
SERR-EST
370
    15
100
AcDbLine
 10
1467.14321800942
 20
1570.876468421493
 30
0.0
 11
1587.14321800942
 21
1570.876468421493
 31
0.0
  0
LINE
  5
63E
330
1F
100
AcDbEntity
  8
MUR-EST
100
AcDbLine
 10
1587.328815553992
 20
1570.861253726655
 30
0.0
 11
1617.328815553993
 21
1570.861253726655
 31
0.0
  0
LINE
  5
63F
330
1F
100
AcDbEntity
  8
MUR-EST
100
AcDbLine
 10
1587.328815553992
 20
1540.861253726655
 30
0.0
 11
1597.328815553992
 21
1540.861253726655
 31
0.0
  0
LINE
  5
640
330
1F
100
AcDbEntity
  8
MUR-EST
100
AcDbLine
 10
1467.328815553992
 20
1570.861253726655
 30
0.0
 11
1467.328815553992
 21
1540.861253726655
 31
0.0
  0
LINE
  5
641
330
1F
100
AcDbEntity
  8
MUR-EST
100
AcDbLine
 10
1587.328815553992
 20
1570.861253726655
 30
0.0
 11
1587.328815553992
 21
1540.861253726655
 31
0.0
  0
LINE
  5
642
330
1F
100
AcDbEntity
  8
SERR-EST
370
    15
100
AcDbLine
 10
997.328815553994
 20
2915.861253726655
 30
0.0
 11
997.3288155539949
 21
2795.861253726655
 31
0.0
  0
LINE
  5
643
330
1F
100
AcDbEntity
  8
SERR-EST
370
    15
100
AcDbLine
 10
1027.328815553994
 20
2915.861253726655
 30
0.0
 11
1027.328815553994
 21
2795.861253726655
 31
0.0
  0
LINE
  5
644
330
1F
100
AcDbEntity
  8
MUR-EST
100
AcDbLine
 10
997.328815553994
 20
2915.861253726655
 30
0.0
 11
1027.328815553994
 21
2915.861253726655
 31
0.0
  0
LINE
  5
645
330
1F
100
AcDbEntity
  8
SERR-EST
370
    15
100
AcDbLine
 10
976.6856328812956
 20
2433.398956763485
 30
0.0
 11
1052.684043663929
 21
2433.398956763485
 31
0.0
  0
LINE
  5
646
330
1F
100
AcDbEntity
  8
MUR-EST
100
AcDbLine
 10
997.328815553994
 20
2373.398956763484
 30
0.0
 11
997.328815553994
 21
2297.965915269531
 31
0.0
  0
LINE
  5
647
330
1F
100
AcDbEntity
  8
MUR-EST
100
AcDbLine
 10
1027.328815553993
 20
2373.398956763484
 30
0.0
 11
1027.328815553993
 21
2300.28690003333
 31
0.0
  0
LINE
  5
648
330
1F
100
AcDbEntity
  8
MUR-EST
100
AcDbLine
 10
997.328815553994
 20
2373.398956763484
 30
0.0
 11
1027.328815553993
 21
2373.398956763484
 31
0.0
  0
LINE
  5
649
330
1F
100
AcDbEntity
  8
SERR-EST
370
    15
100
AcDbLine
 10
976.6856328812936
 20
1715.861253726655
 30
0.0
 11
1052.684043663928
 21
1715.861253726655
 31
0.0
  0
LINE
  5
64A
330
1F
100
AcDbEntity
  8
SERR-EST
370
    15
100
AcDbLine
 10
976.6856328812956
 20
2133.398956763485
 30
0.0
 11
1052.684043663929
 21
2133.398956763485
 31
0.0
  0
LINE
  5
64B
330
1F
100
AcDbEntity
  8
MUR-EST
100
AcDbLine
 10
997.3288155539949
 20
2267.974419813449
 30
0.0
 11
997.328815553994
 21
2193.398956763485
 31
0.0
  0
LINE
  5
64C
330
1F
100
AcDbEntity
  8
MUR-EST
100
AcDbLine
 10
1027.328815553994
 20
2193.398956763485
 30
0.0
 11
1027.328815553994
 21
2267.974419813449
 31
0.0
  0
LINE
  5
64D
330
1F
100
AcDbEntity
  8
MUR-EST
100
AcDbLine
 10
997.328815553994
 20
2193.398956763485
 30
0.0
 11
1027.328815553994
 21
2193.398956763485
 31
0.0
  0
LINE
  5
64E
330
1F
100
AcDbEntity
  8
MUR-EST
100
AcDbLine
 10
997.3288155539949
 20
5170.861253726655
 30
0.0
 11
997.3288155539957
 21
5200.861253726653
 31
0.0
  0
LINE
  5
64F
330
1F
100
AcDbEntity
  8
MUR-EST
100
AcDbLine
 10
997.3288155539922
 20
1655.861253726655
 30
0.0
 11
997.3288155539922
 21
1540.861253726655
 31
0.0
  0
LINE
  5
650
330
1F
100
AcDbEntity
  8
MUR-EST
100
AcDbLine
 10
1027.328815553992
 20
1655.861253726655
 30
0.0
 11
1027.328815553992
 21
1570.861253726655
 31
0.0
  0
LINE
  5
651
330
1F
100
AcDbEntity
  8
MUR-EST
100
AcDbLine
 10
997.3288155539931
 20
1655.861253726655
 30
0.0
 11
1027.328815553993
 21
1655.861253726655
 31
0.0
  0
LINE
  5
652
330
1F
100
AcDbEntity
  8
SCALE
370
    15
100
AcDbLine
 10
2987.328815553992
 20
2023.642185179983
 30
0.0
 11
2867.328815553992
 21
2023.642185179983
 31
0.0
  0
LINE
  5
653
330
1F
100
AcDbEntity
  8
SCALE
370
    15
100
AcDbLine
 10
2987.328815553992
 20
2053.642185179983
 30
0.0
 11
2867.328815553992
 21
2053.642185179984
 31
0.0
  0
LINE
  5
654
330
1F
100
AcDbEntity
  8
SCALE
370
    15
100
AcDbLine
 10
2987.328815553992
 20
2083.642185179984
 30
0.0
 11
2867.403886987068
 21
2083.642185179984
 31
0.0
  0
LINE
  5
655
330
1F
100
AcDbEntity
  8
SCALE
370
    15
100
AcDbLine
 10
2987.328815553992
 20
2113.642185179983
 30
0.0
 11
2867.403886987068
 21
2113.64218517998
 31
0.0
  0
LINE
  5
656
330
1F
100
AcDbEntity
  8
SCALE
370
    15
100
AcDbLine
 10
2987.328815553992
 20
2173.642185179982
 30
0.0
 11
2959.978435841031
 21
2173.642185179982
 31
0.0
  0
LINE
  5
657
330
1F
100
AcDbEntity
  8
SCALE
370
    15
100
AcDbLine
 10
2987.328815553992
 20
2143.642185179983
 30
0.0
 11
2890.458954746377
 21
2143.642185179985
 31
0.0
  0
LINE
  5
658
330
1F
100
AcDbEntity
  8
MUR-EST
100
AcDbLine
 10
1617.328815553992
 20
4305.521244011365
 30
0.0
 11
1617.328815553993
 21
4440.786725089906
 31
0.0
  0
LINE
  5
659
330
1F
100
AcDbEntity
  8
MUR-EST
100
AcDbLine
 10
1627.328815553992
 20
4320.521244011366
 30
0.0
 11
1627.328815553993
 21
4440.786725089906
 31
0.0
  0
LINE
  5
65A
330
1F
100
AcDbEntity
  8
MUR-EST
100
AcDbLine
 10
1027.328815553992
 20
4325.861253726653
 30
0.0
 11
1027.328815553993
 21
4445.861253726653
 31
0.0
  0
LINE
  5
65B
330
1F
100
AcDbEntity
  8
MUR-EST
100
AcDbLine
 10
997.328815553994
 20
4445.861253726653
 30
0.0
 11
997.328815553994
 21
4325.861253726653
 31
0.0
  0
LINE
  5
65C
330
1F
100
AcDbEntity
  8
MUR-EST
100
AcDbLine
 10
1027.328815553993
 20
4325.861253726653
 30
0.0
 11
997.328815553994
 21
4325.861253726653
 31
0.0
  0
INSERT
  5
65D
330
1F
100
AcDbEntity
  8
DEST-LOC
100
AcDbBlockReference
 66
     1
  2
DEST-LOC
 10
2378.945748158707
 20
2594.029901589062
 30
0.0
 41
20.0
 42
20.0
 43
20.0
  0
ATTRIB
  5
65E
330
65D
100
AcDbEntity
  8
0
100
AcDbText
 10
2350.290495287326
 20
2592.046936337863
 30
0.0
 40
30.0
  1
DEPOSITO
  7
ROMANS
 72
     4
 11
2457.433352430184
 21
2607.046936337863
 31
0.0
100
AcDbAttribute
  2
DEST-LOC
 70
     0
  0
ATTRIB
  5
65F
330
65D
100
AcDbEntity
  8
0
100
AcDbText
 10
2457.433352430184
 20
2578.588188582123
 30
0.0
 40
20.0
  1

  7
ROMANS
 72
     4
 11
2457.433352430184
 21
2578.588188582123
 31
0.0
100
AcDbAttribute
  2
DEST-LOC
 70
     0
  0
SEQEND
  5
660
330
65D
100
AcDbEntity
  8
DEST-LOC
  0
LINE
  5
661
330
1F
100
AcDbEntity
  8
MUR-EST
100
AcDbLine
 10
1617.328815553992
 20
1670.861253726655
 30
0.0
 11
1627.328815553993
 21
1670.861253726655
 31
0.0
  0
LINE
  5
662
330
1F
100
AcDbEntity
  8
MUR-EST
100
AcDbLine
 10
1617.328815553992
 20
1760.861253726653
 30
0.0
 11
1627.328815553993
 21
1760.861253726653
 31
0.0
  0
LINE
  5
663
330
1F
100
AcDbEntity
  8
SERR-INT
370
    15
100
AcDbLine
 10
1617.328815553992
 20
1670.861253726655
 30
0.0
 11
1617.382037569112
 21
1750.861236023012
 31
0.0
  0
LINE
  5
664
330
1F
100
AcDbEntity
  8
SERR-INT
370
    15
100
AcDbLine
 10
1617.328815553992
 20
1670.861253726655
 30
0.0
 11
1617.388690321002
 21
1760.861233810118
 31
0.0
  0
ARC
  5
665
330
1F
100
AcDbEntity
  8
SERR-INT
370
    15
100
AcDbCircle
 10
1617.328815553992
 20
1670.861253726655
 30
0.0
 40
89.99999999999985
100
AcDbArc
 50
89.96188253664255
 51
179.9618825366425
  0
LINE
  5
666
330
1F
100
AcDbEntity
  8
SERR-INT
370
    15
100
AcDbLine
 10
1617.328815553992
 20
1670.861253726655
 30
0.0
 11
1527.328835470527
 21
1670.921128493661
 31
0.0
  0
LINE
  5
667
330
1F
100
AcDbEntity
  8
SERR-INT
370
    15
100
AcDbLine
 10
1267.328815553992
 20
5046.40639790777
 30
0.0
 11
1267.328815553992
 21
4991.406397907768
 31
0.0
  0
ARC
  5
668
330
1F
100
AcDbEntity
  8
SERR-INT
370
    15
100
AcDbCircle
 10
1267.328815553992
 20
5051.406397907769
 30
0.0
 40
60.00000000000085
100
AcDbArc
 50
270.0
 51
0.0
  0
ARC
  5
669
330
1F
100
AcDbEntity
  8
SERR-INT
370
    15
100
AcDbCircle
 10
1157.328815553993
 20
5051.406397907769
 30
0.0
 40
60.00000000000085
100
AcDbArc
 50
270.0
 51
0.0
  0
LINE
  5
66A
330
1F
100
AcDbEntity
  8
SERR-INT
370
    15
100
AcDbLine
 10
1157.328815553993
 20
5046.40639790777
 30
0.0
 11
1157.328815553993
 21
4991.406397907768
 31
0.0
  0
ARC
  5
66B
330
1F
100
AcDbEntity
  8
SERR-INT
370
    15
100
AcDbCircle
 10
1045.62411782908
 20
5051.406397907769
 30
0.0
 40
60.00000000000085
100
AcDbArc
 50
270.0
 51
0.0
  0
LINE
  5
66C
330
1F
100
AcDbEntity
  8
SERR-INT
370
    15
100
AcDbLine
 10
1045.62411782908
 20
5046.40639790777
 30
0.0
 11
1045.62411782908
 21
4991.406397907768
 31
0.0
  0
LINE
  5
66D
330
1F
100
AcDbEntity
  8
SERR-INT
370
    15
100
AcDbLine
 10
1045.62411782908
 20
4610.861253726652
 30
0.0
 11
1045.62411782908
 21
4555.861253726652
 31
0.0
  0
ARC
  5
66E
330
1F
100
AcDbEntity
  8
SERR-INT
370
    15
100
AcDbCircle
 10
1045.62411782908
 20
4615.861253726652
 30
0.0
 40
60.00000000000085
100
AcDbArc
 50
270.0
 51
0.0
  0
LINE
  5
66F
330
1F
100
AcDbEntity
  8
SERR-INT
370
    15
100
AcDbLine
 10
1157.328815553993
 20
4610.861253726652
 30
0.0
 11
1157.328815553993
 21
4555.861253726652
 31
0.0
  0
ARC
  5
670
330
1F
100
AcDbEntity
  8
SERR-INT
370
    15
100
AcDbCircle
 10
1157.328815553993
 20
4615.861253726652
 30
0.0
 40
60.00000000000085
100
AcDbArc
 50
270.0
 51
0.0
  0
ARC
  5
671
330
1F
100
AcDbEntity
  8
SERR-INT
370
    15
100
AcDbCircle
 10
1267.328815553992
 20
4615.861253726652
 30
0.0
 40
60.00000000000085
100
AcDbArc
 50
270.0
 51
0.0
  0
LINE
  5
672
330
1F
100
AcDbEntity
  8
SERR-INT
370
    15
100
AcDbLine
 10
1267.328815553992
 20
4610.861253726652
 30
0.0
 11
1267.328815553992
 21
4555.861253726652
 31
0.0
  0
LINE
  5
673
330
1F
100
AcDbEntity
  8
MUR-EST
100
AcDbLine
 10
1347.328815553994
 20
4855.026276702684
 30
0.0
 11
1368.364731662919
 21
4855.026276702684
 31
0.0
  0
LINE
  5
674
330
1F
100
AcDbEntity
  8
SERR-INT
370
    15
100
AcDbLine
 10
1348.364731662919
 20
4855.026276702684
 30
0.0
 11
1348.364731662919
 21
4785.018611963853
 31
0.0
  0
LINE
  5
675
330
1F
100
AcDbEntity
  8
SERR-INT
370
    15
100
AcDbLine
 10
1348.364731662919
 20
4785.018611963853
 30
0.0
 11
1278.357066924087
 21
4785.018611963853
 31
0.0
  0
ARC
  5
676
330
1F
100
AcDbEntity
  8
SERR-INT
370
    15
100
AcDbCircle
 10
1348.364731662919
 20
4785.018611963853
 30
0.0
 40
70.00766473883223
100
AcDbArc
 50
89.15215301945776
 51
180.0
  0
ARC
  5
677
330
1F
100
AcDbEntity
  8
SERR-INT
370
    15
100
AcDbCircle
 10
1348.364731662919
 20
4495.078430067984
 30
0.0
 40
70.00766473883223
100
AcDbArc
 50
89.15215301945776
 51
180.0
  0
LINE
  5
678
330
1F
100
AcDbEntity
  8
MUR-EST
100
AcDbLine
 10
1347.328815553992
 20
4565.078430067984
 30
0.0
 11
1368.364731662917
 21
4565.078430067984
 31
0.0
  0
LINE
  5
679
330
1F
100
AcDbEntity
  8
MUR-EST
100
AcDbLine
 10
1368.364731662917
 20
4470.861253726654
 30
0.0
 11
1577.328815553993
 21
4470.861253726654
 31
0.0
  0
LINE
  5
67A
330
1F
100
AcDbEntity
  8
SERR-INT
370
    15
100
AcDbLine
 10
2541.926035191317
 20
4850.861253726653
 30
0.0
 11
2541.926035191317
 21
4780.861253726651
 31
0.0
  0
LINE
  5
67B
330
1F
100
AcDbEntity
  8
SERR-INT
370
    15
100
AcDbLine
 10
2541.926035191317
 20
4980.861253726654
 30
0.0
 11
2541.926035191317
 21
4900.861253726652
 31
0.0
  0
LINE
  5
67C
330
1F
100
AcDbEntity
  8
SERR-INT
370
    15
100
AcDbLine
 10
2737.328815553992
 20
5055.861253726654
 30
0.0
 11
2677.328815553992
 21
5055.861253726654
 31
0.0
  0
LINE
  5
67D
330
1F
100
AcDbEntity
  8
SERR-EST
370
    15
100
AcDbLine
 10
2737.328815553992
 20
5200.861253726654
 30
0.0
 11
2617.328815553992
 21
5200.861253726654
 31
0.0
  0
LINE
  5
67E
330
1F
100
AcDbEntity
  8
SERR-EST
370
    15
100
AcDbLine
 10
2737.328815553992
 20
5170.861253726655
 30
0.0
 11
2617.328815553992
 21
5170.861253726655
 31
0.0
  0
LINE
  5
67F
330
1F
100
AcDbEntity
  8
SERR-EST
370
    15
100
AcDbLine
 10
2737.328815553992
 20
5193.861253726654
 30
0.0
 11
2617.328815553992
 21
5193.861253726654
 31
0.0
  0
LINE
  5
680
330
1F
100
AcDbEntity
  8
SERR-EST
370
    15
100
AcDbLine
 10
2737.328815553992
 20
5186.861253726654
 30
0.0
 11
2617.328815553992
 21
5186.861253726654
 31
0.0
  0
LINE
  5
681
330
1F
100
AcDbEntity
  8
MUR-EST
100
AcDbLine
 10
2546.926035191318
 20
5050.861253726655
 30
0.0
 11
2546.926035191318
 21
4980.861253726654
 31
0.0
  0
LINE
  5
682
330
1F
100
AcDbEntity
  8
MUR-EST
100
AcDbLine
 10
2837.328815553992
 20
5050.861253726655
 30
0.0
 11
2837.328815553992
 21
4900.861253726652
 31
0.0
  0
LINE
  5
683
330
1F
100
AcDbEntity
  8
MUR-EST
100
AcDbLine
 10
2536.926035191316
 20
5170.861253726654
 30
0.0
 11
2456.926035191316
 21
5170.861253726652
 31
0.0
  0
LINE
  5
684
330
1F
100
AcDbEntity
  8
MUR-EST
100
AcDbLine
 10
2336.926035191316
 20
5200.861253726654
 30
0.0
 11
2336.926035191316
 21
5170.861253726655
 31
0.0
  0
LINE
  5
685
330
1F
100
AcDbEntity
  8
MUR-EST
100
AcDbLine
 10
2456.926035191316
 20
5200.861253726654
 30
0.0
 11
2456.926035191316
 21
5170.861253726652
 31
0.0
  0
LINE
  5
686
330
1F
100
AcDbEntity
  8
MUR-EST
100
AcDbLine
 10
2617.328815553992
 20
5200.861253726654
 30
0.0
 11
2456.926035191316
 21
5200.861253726654
 31
0.0
  0
LINE
  5
687
330
1F
100
AcDbEntity
  8
MUR-EST
100
AcDbLine
 10
2617.328815553992
 20
5200.861253726654
 30
0.0
 11
2617.328815553992
 21
5170.861253726655
 31
0.0
  0
LINE
  5
688
330
1F
100
AcDbEntity
  8
MUR-EST
100
AcDbLine
 10
2737.328815553992
 20
5200.861253726654
 30
0.0
 11
2737.328815553992
 21
5170.861253726655
 31
0.0
  0
LINE
  5
689
330
1F
100
AcDbEntity
  8
MUR-EST
100
AcDbLine
 10
2677.328815553992
 20
5050.861253726655
 30
0.0
 11
2546.926035191316
 21
5050.861253726655
 31
0.0
  0
LINE
  5
68A
330
1F
100
AcDbEntity
  8
MUR-EST
100
AcDbLine
 10
2677.328815553992
 20
5060.861253726654
 30
0.0
 11
2546.926035191316
 21
5060.861253726655
 31
0.0
  0
LINE
  5
68B
330
1F
100
AcDbEntity
  8
MUR-EST
100
AcDbLine
 10
2677.328815553992
 20
5060.861253726654
 30
0.0
 11
2677.328815553992
 21
5050.861253726655
 31
0.0
  0
LINE
  5
68C
330
1F
100
AcDbEntity
  8
MUR-EST
100
AcDbLine
 10
2737.328815553992
 20
5060.861253726654
 30
0.0
 11
2737.328815553992
 21
5050.861253726655
 31
0.0
  0
LINE
  5
68D
330
1F
100
AcDbEntity
  8
MUR-EST
100
AcDbLine
 10
2837.328815553992
 20
5050.861253726655
 30
0.0
 11
2737.328815553992
 21
5050.861253726655
 31
0.0
  0
LINE
  5
68E
330
1F
100
AcDbEntity
  8
MUR-EST
100
AcDbLine
 10
2837.328815553992
 20
5060.861253726654
 30
0.0
 11
2737.328815553992
 21
5060.861253726654
 31
0.0
  0
LINE
  5
68F
330
1F
100
AcDbEntity
  8
MUR-EST
100
AcDbLine
 10
2867.328815553992
 20
5170.861253726655
 30
0.0
 11
2867.328815553992
 21
4900.861253726652
 31
0.0
  0
LINE
  5
690
330
1F
100
AcDbEntity
  8
MUR-EST
100
AcDbLine
 10
2837.328815553992
 20
5170.861253726655
 30
0.0
 11
2837.328815553992
 21
5060.861253726654
 31
0.0
  0
LINE
  5
691
330
1F
100
AcDbEntity
  8
MUR-EST
100
AcDbLine
 10
2837.328815553992
 20
4900.861253726652
 30
0.0
 11
2867.328815553992
 21
4900.861253726652
 31
0.0
  0
LINE
  5
692
330
1F
100
AcDbEntity
  8
SERR-EST
370
    15
100
AcDbLine
 10
1607.328815553992
 20
5185.861253726654
 30
0.0
 11
1527.328815553992
 21
5185.861253726654
 31
0.0
  0
LINE
  5
693
330
1F
100
AcDbEntity
  8
MUR-EST
100
AcDbLine
 10
1527.328815553992
 20
5200.861253726654
 30
0.0
 11
997.3288155539957
 21
5200.861253726653
 31
0.0
  0
LINE
  5
694
330
1F
100
AcDbEntity
  8
MUR-EST
100
AcDbLine
 10
1607.328815553992
 20
5170.861253726655
 30
0.0
 11
1657.328815553992
 21
5170.861253726655
 31
0.0
  0
LINE
  5
695
330
1F
100
AcDbEntity
  8
MUR-EST
100
AcDbLine
 10
1527.328815553992
 20
5200.861253726654
 30
0.0
 11
1527.328815553992
 21
5170.861253726655
 31
0.0
  0
LINE
  5
696
330
1F
100
AcDbEntity
  8
MUR-EST
100
AcDbLine
 10
1607.328815553992
 20
5200.861253726654
 30
0.0
 11
1607.328815553992
 21
5170.861253726655
 31
0.0
  0
LINE
  5
697
330
1F
100
AcDbEntity
  8
MUR-EST
100
AcDbLine
 10
1368.364731662917
 20
4760.861253726653
 30
0.0
 11
1507.328815553992
 21
4760.861253726653
 31
0.0
  0
LINE
  5
698
330
1F
100
AcDbEntity
  8
MUR-EST
100
AcDbLine
 10
1368.364731662919
 20
4785.018611963852
 30
0.0
 11
1368.364731662919
 21
4760.801435622521
 31
0.0
  0
LINE
  5
699
330
1F
100
AcDbEntity
  8
MUR-EST
100
AcDbLine
 10
1348.364731662919
 20
4785.018611963852
 30
0.0
 11
1368.364731662919
 21
4785.018611963852
 31
0.0
  0
LINE
  5
69A
330
1F
100
AcDbEntity
  8
MUR-EST
100
AcDbLine
 10
1348.364731662919
 20
4785.018611963852
 30
0.0
 11
1348.364731662919
 21
4760.801435622521
 31
0.0
  0
LINE
  5
69B
330
1F
100
AcDbEntity
  8
MUR-EST
100
AcDbLine
 10
1327.328815553993
 20
5050.861253726655
 30
0.0
 11
1327.328815553993
 21
5040.861253726655
 31
0.0
  0
LINE
  5
69C
330
1F
100
AcDbEntity
  8
MUR-EST
100
AcDbLine
 10
1267.328815553993
 20
5050.861253726655
 30
0.0
 11
1267.328815553993
 21
5040.861253726655
 31
0.0
  0
LINE
  5
69D
330
1F
100
AcDbEntity
  8
MUR-EST
100
AcDbLine
 10
1217.328815553993
 20
5050.861253726655
 30
0.0
 11
1217.328815553993
 21
5040.861253726655
 31
0.0
  0
LINE
  5
69E
330
1F
100
AcDbEntity
  8
MUR-EST
100
AcDbLine
 10
1327.328815553993
 20
5040.861253726655
 30
0.0
 11
1347.328815553994
 21
5040.861253726655
 31
0.0
  0
LINE
  5
69F
330
1F
100
AcDbEntity
  8
MUR-EST
100
AcDbLine
 10
1327.328815553993
 20
5050.861253726655
 30
0.0
 11
1347.328815553994
 21
5050.861253726655
 31
0.0
  0
LINE
  5
6A0
330
1F
100
AcDbEntity
  8
MUR-EST
100
AcDbLine
 10
1217.328815553993
 20
5040.861253726655
 30
0.0
 11
1267.328815553993
 21
5040.861253726655
 31
0.0
  0
LINE
  5
6A1
330
1F
100
AcDbEntity
  8
MUR-EST
100
AcDbLine
 10
1347.328815553994
 20
5040.861253726655
 30
0.0
 11
1347.328815553994
 21
4855.026276702684
 31
0.0
  0
LINE
  5
6A2
330
1F
100
AcDbEntity
  8
MUR-EST
100
AcDbLine
 10
1217.328815553993
 20
5050.861253726655
 30
0.0
 11
1237.328815553992
 21
5050.861253726655
 31
0.0
  0
LINE
  5
6A3
330
1F
100
AcDbEntity
  8
MUR-EST
100
AcDbLine
 10
1247.328815553994
 20
5050.861253726655
 30
0.0
 11
1267.328815553993
 21
5050.861253726655
 31
0.0
  0
LINE
  5
6A4
330
1F
100
AcDbEntity
  8
SERR-INT
370
    15
100
AcDbLine
 10
1327.328815553993
 20
5045.861253726655
 30
0.0
 11
1267.328815553992
 21
5045.861253726655
 31
0.0
  0
LINE
  5
6A5
330
1F
100
AcDbEntity
  8
MUR-EST
100
AcDbLine
 10
1368.364731662919
 20
5170.861253726655
 30
0.0
 11
1368.364731662919
 21
4855.026276702684
 31
0.0
  0
LINE
  5
6A6
330
1F
100
AcDbEntity
  8
MUR-EST
100
AcDbLine
 10
1237.328815553993
 20
5170.861253726655
 30
0.0
 11
1237.328815553992
 21
5050.861253726655
 31
0.0
  0
LINE
  5
6A7
330
1F
100
AcDbEntity
  8
MUR-EST
100
AcDbLine
 10
1247.328815553994
 20
5170.861253726655
 30
0.0
 11
1247.328815553994
 21
5050.861253726655
 31
0.0
  0
LINE
  5
6A8
330
1F
100
AcDbEntity
  8
MUR-EST
100
AcDbLine
 10
1347.328815553994
 20
5170.861253726655
 30
0.0
 11
1347.328815553994
 21
5050.861253726655
 31
0.0
  0
LINE
  5
6A9
330
1F
100
AcDbEntity
  8
MUR-EST
100
AcDbLine
 10
1157.328815553993
 20
5050.861253726655
 30
0.0
 11
1157.328815553993
 21
5040.861253726655
 31
0.0
  0
LINE
  5
6AA
330
1F
100
AcDbEntity
  8
MUR-EST
100
AcDbLine
 10
1107.328815553993
 20
5050.861253726655
 30
0.0
 11
1107.328815553993
 21
5040.861253726655
 31
0.0
  0
LINE
  5
6AB
330
1F
100
AcDbEntity
  8
MUR-EST
100
AcDbLine
 10
1107.328815553993
 20
5040.861253726655
 30
0.0
 11
1157.328815553993
 21
5040.861253726655
 31
0.0
  0
LINE
  5
6AC
330
1F
100
AcDbEntity
  8
MUR-EST
100
AcDbLine
 10
1107.328815553993
 20
5050.861253726655
 30
0.0
 11
1127.328815553993
 21
5050.861253726655
 31
0.0
  0
LINE
  5
6AD
330
1F
100
AcDbEntity
  8
MUR-EST
100
AcDbLine
 10
1137.328815553992
 20
5050.861253726655
 30
0.0
 11
1157.328815553993
 21
5050.861253726655
 31
0.0
  0
LINE
  5
6AE
330
1F
100
AcDbEntity
  8
MUR-EST
100
AcDbLine
 10
1137.328815553993
 20
5170.861253726655
 30
0.0
 11
1137.328815553992
 21
5050.861253726655
 31
0.0
  0
LINE
  5
6AF
330
1F
100
AcDbEntity
  8
MUR-EST
100
AcDbLine
 10
1127.328815553993
 20
5170.861253726655
 30
0.0
 11
1127.328815553993
 21
5050.861253726655
 31
0.0
  0
LINE
  5
6B0
330
1F
100
AcDbEntity
  8
MUR-EST
100
AcDbLine
 10
1045.62411782908
 20
5050.861253726655
 30
0.0
 11
1045.62411782908
 21
5040.861253726655
 31
0.0
  0
LINE
  5
6B1
330
1F
100
AcDbEntity
  8
MUR-EST
100
AcDbLine
 10
1027.328815553993
 20
5040.861253726655
 30
0.0
 11
1045.62411782908
 21
5040.861253726655
 31
0.0
  0
LINE
  5
6B2
330
1F
100
AcDbEntity
  8
MUR-EST
100
AcDbLine
 10
1027.328815553993
 20
5050.861253726655
 30
0.0
 11
1045.62411782908
 21
5050.861253726655
 31
0.0
  0
LINE
  5
6B3
330
1F
100
AcDbEntity
  8
SERR-INT
370
    15
100
AcDbLine
 10
1107.328815553993
 20
5045.861253726655
 30
0.0
 11
1045.62411782908
 21
5045.861253726655
 31
0.0
  0
LINE
  5
6B4
330
1F
100
AcDbEntity
  8
SERR-INT
370
    15
100
AcDbLine
 10
1217.328815553993
 20
5045.861253726655
 30
0.0
 11
1157.328815553993
 21
5045.861253726655
 31
0.0
  0
LINE
  5
6B5
330
1F
100
AcDbEntity
  8
SERR-INT
370
    15
100
AcDbLine
 10
1107.328815553993
 20
4615.861253726652
 30
0.0
 11
1045.62411782908
 21
4615.861253726652
 31
0.0
  0
LINE
  5
6B6
330
1F
100
AcDbEntity
  8
SERR-INT
370
    15
100
AcDbLine
 10
1217.328815553993
 20
4615.861253726652
 30
0.0
 11
1157.328815553993
 21
4615.861253726652
 31
0.0
  0
LINE
  5
6B7
330
1F
100
AcDbEntity
  8
SERR-INT
370
    15
100
AcDbLine
 10
1327.328815553993
 20
4615.861253726652
 30
0.0
 11
1267.328815553992
 21
4615.861253726652
 31
0.0
  0
LINE
  5
6B8
330
1F
100
AcDbEntity
  8
MUR-EST
100
AcDbLine
 10
1137.328815553992
 20
4620.861253726654
 30
0.0
 11
1157.328815553993
 21
4620.861253726652
 31
0.0
  0
LINE
  5
6B9
330
1F
100
AcDbEntity
  8
MUR-EST
100
AcDbLine
 10
1247.328815553992
 20
4620.861253726654
 30
0.0
 11
1267.328815553992
 21
4620.861253726652
 31
0.0
  0
LINE
  5
6BA
330
1F
100
AcDbEntity
  8
MUR-EST
100
AcDbLine
 10
1347.328815553992
 20
4610.861253726652
 30
0.0
 11
1347.328815553992
 21
4565.078430067984
 31
0.0
  0
LINE
  5
6BB
330
1F
100
AcDbEntity
  8
MUR-EST
100
AcDbLine
 10
1107.328815553993
 20
4620.861253726652
 30
0.0
 11
1127.328815553993
 21
4620.861253726654
 31
0.0
  0
LINE
  5
6BC
330
1F
100
AcDbEntity
  8
MUR-EST
100
AcDbLine
 10
1107.328815553993
 20
4610.861253726652
 30
0.0
 11
1157.328815553993
 21
4610.861253726652
 31
0.0
  0
LINE
  5
6BD
330
1F
100
AcDbEntity
  8
MUR-EST
100
AcDbLine
 10
1217.328815553993
 20
4620.861253726652
 30
0.0
 11
1237.328815553992
 21
4620.861253726654
 31
0.0
  0
LINE
  5
6BE
330
1F
100
AcDbEntity
  8
MUR-EST
100
AcDbLine
 10
1217.328815553993
 20
4610.861253726652
 30
0.0
 11
1267.328815553992
 21
4610.861253726652
 31
0.0
  0
LINE
  5
6BF
330
1F
100
AcDbEntity
  8
MUR-EST
100
AcDbLine
 10
1327.328815553992
 20
4620.861253726652
 30
0.0
 11
1347.328815553994
 21
4620.861253726652
 31
0.0
  0
LINE
  5
6C0
330
1F
100
AcDbEntity
  8
MUR-EST
100
AcDbLine
 10
1327.328815553992
 20
4610.861253726652
 30
0.0
 11
1347.328815553994
 21
4610.861253726652
 31
0.0
  0
LINE
  5
6C1
330
1F
100
AcDbEntity
  8
MUR-EST
100
AcDbLine
 10
1045.62411782908
 20
4620.861253726652
 30
0.0
 11
1045.62411782908
 21
4610.861253726652
 31
0.0
  0
LINE
  5
6C2
330
1F
100
AcDbEntity
  8
MUR-EST
100
AcDbLine
 10
1107.328815553993
 20
4620.861253726652
 30
0.0
 11
1107.328815553993
 21
4610.861253726652
 31
0.0
  0
LINE
  5
6C3
330
1F
100
AcDbEntity
  8
MUR-EST
100
AcDbLine
 10
1157.328815553993
 20
4620.861253726652
 30
0.0
 11
1157.328815553993
 21
4610.861253726652
 31
0.0
  0
LINE
  5
6C4
330
1F
100
AcDbEntity
  8
MUR-EST
100
AcDbLine
 10
1217.328815553993
 20
4620.861253726652
 30
0.0
 11
1217.328815553993
 21
4610.861253726652
 31
0.0
  0
LINE
  5
6C5
330
1F
100
AcDbEntity
  8
MUR-EST
100
AcDbLine
 10
1327.328815553993
 20
4620.861253726652
 30
0.0
 11
1327.328815553993
 21
4610.861253726652
 31
0.0
  0
LINE
  5
6C6
330
1F
100
AcDbEntity
  8
MUR-EST
100
AcDbLine
 10
1267.328815553992
 20
4620.861253726652
 30
0.0
 11
1267.328815553992
 21
4610.861253726652
 31
0.0
  0
LINE
  5
6C7
330
1F
100
AcDbEntity
  8
MUR-EST
100
AcDbLine
 10
1127.328815553993
 20
4740.861253726652
 30
0.0
 11
1127.328815553993
 21
4620.861253726652
 31
0.0
  0
LINE
  5
6C8
330
1F
100
AcDbEntity
  8
MUR-EST
100
AcDbLine
 10
1137.328815553993
 20
4740.861253726652
 30
0.0
 11
1137.328815553992
 21
4620.861253726652
 31
0.0
  0
LINE
  5
6C9
330
1F
100
AcDbEntity
  8
MUR-EST
100
AcDbLine
 10
1237.328815553993
 20
4740.861253726652
 30
0.0
 11
1237.328815553992
 21
4620.861253726652
 31
0.0
  0
LINE
  5
6CA
330
1F
100
AcDbEntity
  8
MUR-EST
100
AcDbLine
 10
1247.328815553994
 20
4740.861253726652
 30
0.0
 11
1247.328815553992
 21
4620.861253726652
 31
0.0
  0
LINE
  5
6CB
330
1F
100
AcDbEntity
  8
MUR-EST
100
AcDbLine
 10
1027.328815553993
 20
4610.861253726652
 30
0.0
 11
1045.62411782908
 21
4610.861253726652
 31
0.0
  0
LINE
  5
6CC
330
1F
100
AcDbEntity
  8
MUR-EST
100
AcDbLine
 10
1027.328815553993
 20
4620.861253726652
 30
0.0
 11
1045.62411782908
 21
4620.861253726652
 31
0.0
  0
LINE
  5
6CD
330
1F
100
AcDbEntity
  8
MUR-EST
100
AcDbLine
 10
1347.328815553994
 20
4740.861253726652
 30
0.0
 11
1347.328815553992
 21
4620.861253726651
 31
0.0
  0
LINE
  5
6CE
330
1F
100
AcDbEntity
  8
MUR-EST
100
AcDbLine
 10
997.328815553994
 20
3215.861253726656
 30
0.0
 11
1027.328815553993
 21
3215.861253726656
 31
0.0
  0
LINE
  5
6CF
330
1F
100
AcDbEntity
  8
MUR-EST
100
AcDbLine
 10
997.328815553994
 20
3515.861253726654
 30
0.0
 11
997.3288155539922
 21
3215.861253726656
 31
0.0
  0
LINE
  5
6D0
330
1F
100
AcDbEntity
  8
MUR-EST
100
AcDbLine
 10
997.328815553994
 20
3515.861253726654
 30
0.0
 11
1027.328815553993
 21
3515.861253726654
 31
0.0
  0
LINE
  5
6D1
330
1F
100
AcDbEntity
  8
MUR-EST
100
AcDbLine
 10
997.328815553994
 20
3515.861253726654
 30
0.0
 11
1027.328815553993
 21
3515.861253726654
 31
0.0
  0
LINE
  5
6D2
330
1F
100
AcDbEntity
  8
MUR-EST
100
AcDbLine
 10
997.328815553994
 20
3515.861253726654
 30
0.0
 11
997.3288155539949
 21
3470.861253726655
 31
0.0
  0
LINE
  5
6D3
330
1F
100
AcDbEntity
  8
MUR-EST
100
AcDbLine
 10
997.328815553994
 20
3500.861253726654
 30
0.0
 11
997.3288155539949
 21
3470.861253726655
 31
0.0
  0
LINE
  5
6D4
330
1F
100
AcDbEntity
  8
MUR-EST
100
AcDbLine
 10
1027.328815553993
 20
3515.861253726654
 30
0.0
 11
1027.328815553993
 21
3215.861253726656
 31
0.0
  0
LINE
  5
6D5
330
1F
100
AcDbEntity
  8
ASSI-PIL
370
    15
100
AcDbLine
 10
2121.097116432849
 20
4499.815047293175
 30
0.0
 11
2121.097116432849
 21
4394.669469560159
 31
0.0
  0
LINE
  5
6D6
330
1F
100
AcDbEntity
  8
ASSI-PIL
370
    15
100
AcDbLine
 10
2164.172121074682
 20
4448.115114435944
 30
0.0
 11
2081.373485149879
 21
4448.115114435944
 31
0.0
  0
LINE
  5
6D7
330
1F
100
AcDbEntity
  8
MUR-EST
100
AcDbLine
 10
2137.328815553993
 20
4472.074706696202
 30
0.0
 11
2137.328815553993
 21
4422.074706696202
 31
0.0
  0
LINE
  5
6D8
330
1F
100
AcDbEntity
  8
MUR-EST
100
AcDbLine
 10
2107.328815553993
 20
4472.074706696202
 30
0.0
 11
2107.328815553993
 21
4422.074706696202
 31
0.0
  0
LINE
  5
6D9
330
1F
100
AcDbEntity
  8
MUR-EST
100
AcDbLine
 10
2107.328815553993
 20
4422.074706696202
 30
0.0
 11
2137.328815553993
 21
4422.074706696202
 31
0.0
  0
LINE
  5
6DA
330
1F
100
AcDbEntity
  8
MUR-EST
100
AcDbLine
 10
2107.328815553993
 20
4472.074706696202
 30
0.0
 11
2137.328815553993
 21
4472.074706696202
 31
0.0
  0
LINE
  5
6DB
330
1F
100
AcDbEntity
  8
SCALE
  6
DASHDOT
370
    15
100
AcDbLine
 10
3087.503516473365
 20
3871.826883855167
 30
0.0
 11
2867.328815553992
 21
3961.752047007135
 31
0.0
  0
LINE
  5
6DC
330
1F
100
AcDbEntity
  8
SCALE
  6
DASHDOT
370
    15
100
AcDbLine
 10
3087.503516473365
 20
3854.772620289275
 30
0.0
 11
2867.328815553992
 21
3944.697783441244
 31
0.0
  0
LINE
  5
6DD
330
1F
100
AcDbEntity
  8
MUR-EST
100
AcDbLine
 10
997.328815553994
 20
2493.398956763485
 30
0.0
 11
1027.328815553993
 21
2493.398956763485
 31
0.0
  0
LINE
  5
6DE
330
1F
100
AcDbEntity
  8
MUR-EST
100
AcDbLine
 10
997.328815553994
 20
2795.861253726655
 30
0.0
 11
1027.328815553993
 21
2795.861253726655
 31
0.0
  0
LINE
  5
6DF
330
1F
100
AcDbEntity
  8
MUR-EST
100
AcDbLine
 10
997.328815553994
 20
2795.861253726655
 30
0.0
 11
1027.328815553994
 21
2795.861253726655
 31
0.0
  0
LINE
  5
6E0
330
1F
100
AcDbEntity
  8
MUR-EST
100
AcDbLine
 10
997.328815553994
 20
2795.861253726655
 30
0.0
 11
997.3288155539922
 21
2493.398956763483
 31
0.0
  0
LINE
  5
6E1
330
1F
100
AcDbEntity
  8
MUR-EST
100
AcDbLine
 10
1027.328815553993
 20
2795.861253726655
 30
0.0
 11
1027.328815553992
 21
2493.398956763485
 31
0.0
  0
LINE
  5
6E2
330
1F
100
AcDbEntity
  8
MUR-EST
100
AcDbLine
 10
1837.328815553992
 20
3101.499720429959
 30
0.0
 11
1857.328815553993
 21
3101.499720429959
 31
0.0
  0
LINE
  5
6E3
330
1F
100
AcDbEntity
  8
MUR-EST
100
AcDbLine
 10
1837.328815553992
 20
3231.499720429957
 30
0.0
 11
1857.328815553993
 21
3231.499720429959
 31
0.0
  0
LINE
  5
6E4
330
1F
100
AcDbEntity
  8
SERR-INT
370
    15
100
AcDbLine
 10
1847.328815553992
 20
3231.499720429958
 30
0.0
 11
1717.328815553993
 21
3231.499720429957
 31
0.0
  0
LINE
  5
6E5
330
1F
100
AcDbEntity
  8
SERR-INT
370
    15
100
AcDbLine
 10
1847.328815553992
 20
3231.499720429958
 30
0.0
 11
1847.328815553992
 21
3101.499720429959
 31
0.0
  0
ARC
  5
6E6
330
1F
100
AcDbEntity
  8
SERR-INT
370
    15
100
AcDbCircle
 10
1847.328815553992
 20
3231.499720429958
 30
0.0
 40
129.9999999999997
100
AcDbArc
 50
180.0
 51
270.0
  0
ARC
  5
6E7
330
1F
100
AcDbEntity
  8
SERR-INT
370
    15
100
AcDbCircle
 10
1847.328815553992
 20
2182.058226198119
 30
0.0
 40
129.9999999999997
100
AcDbArc
 50
180.0
 51
270.0
  0
LINE
  5
6E8
330
1F
100
AcDbEntity
  8
SERR-INT
370
    15
100
AcDbLine
 10
1847.328815553992
 20
2182.058226198119
 30
0.0
 11
1717.328815553993
 21
2182.058226198118
 31
0.0
  0
LINE
  5
6E9
330
1F
100
AcDbEntity
  8
SERR-INT
370
    15
100
AcDbLine
 10
1847.328815553992
 20
2182.058226198119
 30
0.0
 11
1847.328815553992
 21
2052.058226198119
 31
0.0
  0
LINE
  5
6EA
330
1F
100
AcDbEntity
  8
MUR-EST
100
AcDbLine
 10
1837.328815553992
 20
2182.058226198119
 30
0.0
 11
1857.328815553993
 21
2182.058226198119
 31
0.0
  0
LINE
  5
6EB
330
1F
100
AcDbEntity
  8
MUR-EST
100
AcDbLine
 10
1837.328815553994
 20
2052.058226198119
 30
0.0
 11
1857.328815553993
 21
2052.058226198119
 31
0.0
  0
LINE
  5
6EC
330
1F
100
AcDbEntity
  8
MUR-EST
100
AcDbLine
 10
997.3288155539931
 20
1775.861253726655
 30
0.0
 11
1027.328815553993
 21
1775.861253726655
 31
0.0
  0
ARC
  5
6ED
330
1F
100
AcDbEntity
  8
SERR-INT
370
    15
100
AcDbCircle
 10
1639.891674734588
 20
1554.888589421231
 30
0.0
 40
187.0731445558672
100
AcDbArc
 50
270.0
 51
359.9618825366425
  0
LINE
  5
6EE
330
1F
100
AcDbEntity
  8
MUR-EST
100
AcDbLine
 10
1627.328815553992
 20
1550.861253726653
 30
0.0
 11
1636.739263045691
 21
1550.861253726653
 31
0.0
  0
LINE
  5
6EF
330
1F
100
AcDbEntity
  8
MUR-EST
100
AcDbLine
 10
1627.328815553993
 20
1559.044126216428
 30
0.0
 11
1636.739263045691
 21
1559.044126216428
 31
0.0
  0
LINE
  5
6F0
330
1F
100
AcDbEntity
  8
MUR-EST
100
AcDbLine
 10
1829.443231180203
 20
1559.044126216428
 30
0.0
 11
1829.443231180203
 21
1550.861253726653
 31
0.0
  0
LINE
  5
6F1
330
1F
100
AcDbEntity
  8
MUR-EST
100
AcDbLine
 10
1636.739263045691
 20
1559.044126216428
 30
0.0
 11
1636.739263045691
 21
1550.861253726653
 31
0.0
  0
LINE
  5
6F2
330
1F
100
AcDbEntity
  8
MUR-EST
100
AcDbLine
 10
1829.443231180203
 20
1559.044126216428
 30
0.0
 11
1837.328815553994
 21
1559.044126216428
 31
0.0
  0
LINE
  5
6F3
330
1F
100
AcDbEntity
  8
MUR-EST
100
AcDbLine
 10
2187.328815553992
 20
1920.861253726653
 30
0.0
 11
2837.328815553992
 21
1920.861253726653
 31
0.0
  0
LINE
  5
6F4
330
1F
100
AcDbEntity
  8
MUR-EST
100
AcDbLine
 10
2187.328815553992
 20
1890.861253726653
 30
0.0
 11
2247.328815553992
 21
1890.861253726653
 31
0.0
  0
LINE
  5
6F5
330
1F
100
AcDbEntity
  8
MUR-EST
100
AcDbLine
 10
1917.328815553994
 20
1920.861253726653
 30
0.0
 11
1917.328815553994
 21
1890.861253726652
 31
0.0
  0
LINE
  5
6F6
330
1F
100
AcDbEntity
  8
MUR-EST
100
AcDbLine
 10
2187.328815553992
 20
1920.861253726653
 30
0.0
 11
2187.328815553992
 21
1890.861253726653
 31
0.0
  0
LINE
  5
6F7
330
1F
100
AcDbEntity
  8
SCALE
  6
DASHDOT
370
    15
100
AcDbLine
 10
1597.328815553992
 20
1018.547733118793
 30
0.0
 11
1807.328815553992
 21
1151.179312066161
 31
0.0
  0
LINE
  5
6F8
330
1F
100
AcDbEntity
  8
MUR-EST
100
AcDbLine
 10
2247.328815553992
 20
1090.861253726651
 30
0.0
 11
2247.328815553992
 21
850.8612537266552
 31
0.0
  0
LINE
  5
6F9
330
1F
100
AcDbEntity
  8
MUR-EST
100
AcDbLine
 10
2277.328815553994
 20
1890.861253726653
 30
0.0
 11
2527.328815553993
 21
1890.861253726653
 31
0.0
  0
LINE
  5
6FA
330
1F
100
AcDbEntity
  8
MUR-EST
100
AcDbLine
 10
2527.328815553993
 20
1570.861253726653
 30
0.0
 11
2467.328815553992
 21
1570.861253726653
 31
0.0
  0
LINE
  5
6FB
330
1F
100
AcDbEntity
  8
MUR-EST
100
AcDbLine
 10
2547.328815553994
 20
1890.861253726652
 30
0.0
 11
2837.328815553992
 21
1890.861253726653
 31
0.0
  0
LINE
  5
6FC
330
1F
100
AcDbEntity
  8
MUR-EST
100
AcDbLine
 10
2837.328815553992
 20
1890.861253726652
 30
0.0
 11
2837.328815553992
 21
1875.861253726653
 31
0.0
  0
LINE
  5
6FD
330
1F
100
AcDbEntity
  8
SCALE
  6
DASHDOT
370
    15
100
AcDbLine
 10
2867.328815553992
 20
2116.65702278887
 30
0.0
 11
3017.328815553993
 21
2208.916163540715
 31
0.0
  0
LINE
  5
6FE
330
1F
100
AcDbEntity
  8
MUR-EST
100
AcDbLine
 10
2837.328815553992
 20
2055.766948654323
 30
0.0
 11
2867.403886987068
 21
2055.766948654323
 31
0.0
  0
LINE
  5
6FF
330
1F
100
AcDbEntity
  8
SERR-EST
370
    15
100
AcDbLine
 10
2837.403886987067
 20
2267.974419813448
 30
0.0
 11
2837.403886987069
 21
2055.766948654323
 31
0.0
  0
LINE
  5
700
330
1F
100
AcDbEntity
  8
SERR-EST
370
    15
100
AcDbLine
 10
2852.403886987067
 20
2267.974419813448
 30
0.0
 11
2852.403886987067
 21
2055.766948654323
 31
0.0
  0
LINE
  5
701
330
1F
100
AcDbEntity
  8
SERR-EST
370
    15
100
AcDbLine
 10
2859.903886987068
 20
2267.974419813448
 30
0.0
 11
2859.903886987068
 21
2055.766948654323
 31
0.0
  0
LINE
  5
702
330
1F
100
AcDbEntity
  8
SERR-EST
370
    15
100
AcDbLine
 10
2867.403886987068
 20
2267.974419813448
 30
0.0
 11
2867.403886987068
 21
2055.766948654323
 31
0.0
  0
LINE
  5
703
330
1F
100
AcDbEntity
  8
SERR-EST
370
    15
100
AcDbLine
 10
2867.403886987068
 20
3215.861253726656
 30
0.0
 11
2867.403886987068
 21
3095.861253726655
 31
0.0
  0
LINE
  5
704
330
1F
100
AcDbEntity
  8
SERR-EST
370
    15
100
AcDbLine
 10
2859.903886987068
 20
3215.861253726656
 30
0.0
 11
2859.903886987066
 21
3095.861253726655
 31
0.0
  0
LINE
  5
705
330
1F
100
AcDbEntity
  8
SERR-EST
370
    15
100
AcDbLine
 10
2852.403886987066
 20
3215.861253726656
 30
0.0
 11
2852.403886987066
 21
3095.861253726655
 31
0.0
  0
LINE
  5
706
330
1F
100
AcDbEntity
  8
SERR-EST
370
    15
100
AcDbLine
 10
2837.403886987067
 20
3215.861253726656
 30
0.0
 11
2837.403886987067
 21
3095.861253726655
 31
0.0
  0
LINE
  5
707
330
1F
100
AcDbEntity
  8
MUR-EST
100
AcDbLine
 10
2837.403886987067
 20
2297.974419813447
 30
0.0
 11
2837.403886987067
 21
2267.974419813449
 31
0.0
  0
LINE
  5
708
330
1F
100
AcDbEntity
  8
MUR-EST
100
AcDbLine
 10
2837.403886987067
 20
2267.974419813449
 30
0.0
 11
2867.403886987068
 21
2267.974419813449
 31
0.0
  0
LINE
  5
709
330
1F
100
AcDbEntity
  8
MUR-EST
100
AcDbLine
 10
2867.403886987068
 20
2297.974419813447
 30
0.0
 11
2867.403886987068
 21
2267.974419813449
 31
0.0
  0
LINE
  5
70A
330
1F
100
AcDbEntity
  8
ASSI-PIL
370
    15
100
AcDbLine
 10
2852.403886987067
 20
2258.545743746809
 30
0.0
 11
2852.403886987067
 21
2308.097107965819
 31
0.0
  0
LINE
  5
70B
330
1F
100
AcDbEntity
  8
ASSI-PIL
370
    15
100
AcDbLine
 10
2817.403886987067
 20
2282.974419813449
 30
0.0
 11
2887.403886987068
 21
2282.974419813449
 31
0.0
  0
LINE
  5
70C
330
1F
100
AcDbEntity
  8
MUR-EST
100
AcDbLine
 10
2837.403886987066
 20
2298.099854715484
 30
0.0
 11
2867.403886987068
 21
2298.099854715484
 31
0.0
  0
LINE
  5
70D
330
1F
100
AcDbEntity
  8
ASSI-PIL
370
    15
100
AcDbLine
 10
2817.403886987067
 20
2525.628390392711
 30
0.0
 11
2887.403886987068
 21
2525.628390392711
 31
0.0
  0
LINE
  5
70E
330
1F
100
AcDbEntity
  8
ASSI-PIL
370
    15
100
AcDbLine
 10
2852.403886987067
 20
2501.199714326072
 30
0.0
 11
2852.403886987067
 21
2550.751078545081
 31
0.0
  0
LINE
  5
70F
330
1F
100
AcDbEntity
  8
MUR-EST
100
AcDbLine
 10
2867.403886987068
 20
2540.628390392711
 30
0.0
 11
2867.403886987068
 21
2510.628390392711
 31
0.0
  0
LINE
  5
710
330
1F
100
AcDbEntity
  8
MUR-EST
100
AcDbLine
 10
2837.403886987067
 20
2510.628390392711
 30
0.0
 11
2867.403886987068
 21
2510.628390392711
 31
0.0
  0
LINE
  5
711
330
1F
100
AcDbEntity
  8
MUR-EST
100
AcDbLine
 10
2837.403886987067
 20
2540.628390392711
 30
0.0
 11
2837.403886987067
 21
2510.628390392711
 31
0.0
  0
LINE
  5
712
330
1F
100
AcDbEntity
  8
MUR-EST
100
AcDbLine
 10
2837.403886987066
 20
2540.753825294746
 30
0.0
 11
2867.403886987068
 21
2540.753825294746
 31
0.0
  0
LINE
  5
713
330
1F
100
AcDbEntity
  8
ASSI-PIL
370
    15
100
AcDbLine
 10
2817.267568948315
 20
2765.753825294746
 30
0.0
 11
2887.267568948315
 21
2765.753825294746
 31
0.0
  0
LINE
  5
714
330
1F
100
AcDbEntity
  8
ASSI-PIL
370
    15
100
AcDbLine
 10
2852.267568948315
 20
2741.325149228107
 30
0.0
 11
2852.267568948315
 21
2787.172325065371
 31
0.0
  0
LINE
  5
715
330
1F
100
AcDbEntity
  8
MUR-EST
100
AcDbLine
 10
2867.267568948315
 20
2781.02270156893
 30
0.0
 11
2867.267568948315
 21
2750.753825294746
 31
0.0
  0
LINE
  5
716
330
1F
100
AcDbEntity
  8
MUR-EST
100
AcDbLine
 10
2837.403886987067
 20
2781.02270156893
 30
0.0
 11
2867.267568948315
 21
2781.02270156893
 31
0.0
  0
LINE
  5
717
330
1F
100
AcDbEntity
  8
MUR-EST
100
AcDbLine
 10
2837.267568948313
 20
2781.02270156893
 30
0.0
 11
2837.267568948315
 21
2750.753825294746
 31
0.0
  0
LINE
  5
718
330
1F
100
AcDbEntity
  8
MUR-EST
100
AcDbLine
 10
2837.267568948315
 20
2750.753825294746
 30
0.0
 11
2867.403886987068
 21
2750.753825294746
 31
0.0
  0
LINE
  5
719
330
1F
100
AcDbEntity
  8
MUR-EST
100
AcDbLine
 10
2227.328815553994
 20
2234.861253726654
 30
0.0
 11
2227.328815553994
 21
2204.861253726654
 31
0.0
  0
LINE
  5
71A
330
1F
100
AcDbEntity
  8
MUR-EST
100
AcDbLine
 10
2187.328815553993
 20
2234.861253726654
 30
0.0
 11
2187.328815553993
 21
2204.861253726654
 31
0.0
  0
LINE
  5
71B
330
1F
100
AcDbEntity
  8
MUR-EST
100
AcDbLine
 10
1857.328815553993
 20
1890.861253726652
 30
0.0
 11
1857.328815553993
 21
1570.861253726653
 31
0.0
  0
LINE
  5
71C
330
1F
100
AcDbEntity
  8
MUR-EST
100
AcDbLine
 10
1837.328815553992
 20
4740.861253726652
 30
0.0
 11
1837.328815553992
 21
4012.806799034236
 31
0.0
  0
LINE
  5
71D
330
1F
100
AcDbEntity
  8
ASSI-PIL
370
    15
100
AcDbLine
 10
977.3288155539949
 20
2282.974419813449
 30
0.0
 11
1047.328815553994
 21
2282.974419813449
 31
0.0
  0
LINE
  5
71E
330
1F
100
AcDbEntity
  8
ASSI-PIL
370
    15
100
AcDbLine
 10
1012.328815553994
 20
2258.545743746809
 30
0.0
 11
1012.328815553994
 21
2308.097107965819
 31
0.0
  0
LINE
  5
71F
330
1F
100
AcDbEntity
  8
MUR-EST
100
AcDbLine
 10
1027.328815553994
 20
2297.974419813447
 30
0.0
 11
1027.328815553994
 21
2267.974419813449
 31
0.0
  0
LINE
  5
720
330
1F
100
AcDbEntity
  8
MUR-EST
100
AcDbLine
 10
997.3288155539949
 20
2267.974419813449
 30
0.0
 11
1027.328815553994
 21
2267.974419813449
 31
0.0
  0
LINE
  5
721
330
1F
100
AcDbEntity
  8
MUR-EST
100
AcDbLine
 10
997.3288155539949
 20
2297.974419813447
 30
0.0
 11
997.3288155539949
 21
2267.974419813449
 31
0.0
  0
LINE
  5
722
330
1F
100
AcDbEntity
  8
MUR-EST
100
AcDbLine
 10
997.3288155539931
 20
2298.099854715484
 30
0.0
 11
1027.328815553993
 21
2298.099854715484
 31
0.0
  0
LINE
  5
723
330
1F
100
AcDbEntity
  8
MUR-EST
100
AcDbLine
 10
997.328815553994
 20
3011.02270156893
 30
0.0
 11
997.328815553994
 21
2991.02270156893
 31
0.0
  0
LINE
  5
724
330
1F
100
AcDbEntity
  8
MUR-EST
100
AcDbLine
 10
1027.328815553993
 20
3021.02270156893
 30
0.0
 11
1027.328815553993
 21
2991.02270156893
 31
0.0
  0
LINE
  5
725
330
1F
100
AcDbEntity
  8
MUR-EST
100
AcDbLine
 10
997.328815553994
 20
3021.02270156893
 30
0.0
 11
997.3288155539949
 21
2991.02270156893
 31
0.0
  0
LINE
  5
726
330
1F
100
AcDbEntity
  8
MUR-EST
100
AcDbLine
 10
997.328815553994
 20
3021.02270156893
 30
0.0
 11
1027.328815553993
 21
3021.02270156893
 31
0.0
  0
LINE
  5
727
330
1F
100
AcDbEntity
  8
ASSI-PIL
370
    15
100
AcDbLine
 10
977.328815553994
 20
3006.02270156893
 30
0.0
 11
1047.328815553994
 21
3006.02270156893
 31
0.0
  0
LINE
  5
728
330
1F
100
AcDbEntity
  8
MUR-EST
100
AcDbLine
 10
997.3288155539949
 20
2991.02270156893
 30
0.0
 11
1027.328815553993
 21
2991.02270156893
 31
0.0
  0
LINE
  5
729
330
1F
100
AcDbEntity
  8
ASSI-PIL
370
    15
100
AcDbLine
 10
1012.328815553993
 20
2981.594025502292
 30
0.0
 11
1012.328815553993
 21
3031.145389721301
 31
0.0
  0
LINE
  5
72A
330
1F
100
AcDbEntity
  8
MUR-EST
100
AcDbLine
 10
997.328815553994
 20
3710.793195373493
 30
0.0
 11
1027.328815553993
 21
3710.793195373494
 31
0.0
  0
LINE
  5
72B
330
1F
100
AcDbEntity
  8
ASSI-PIL
370
    15
100
AcDbLine
 10
977.328815553994
 20
3725.793195373493
 30
0.0
 11
1047.328815553994
 21
3725.793195373493
 31
0.0
  0
LINE
  5
72C
330
1F
100
AcDbEntity
  8
MUR-EST
100
AcDbLine
 10
997.328815553994
 20
3740.793195373492
 30
0.0
 11
1027.328815553993
 21
3740.793195373492
 31
0.0
  0
LINE
  5
72D
330
1F
100
AcDbEntity
  8
MUR-EST
100
AcDbLine
 10
997.328815553994
 20
3740.793195373492
 30
0.0
 11
997.328815553994
 21
3710.793195373493
 31
0.0
  0
LINE
  5
72E
330
1F
100
AcDbEntity
  8
MUR-EST
100
AcDbLine
 10
1027.328815553993
 20
3740.793195373492
 30
0.0
 11
1027.328815553993
 21
3710.793195373494
 31
0.0
  0
LINE
  5
72F
330
1F
100
AcDbEntity
  8
MUR-EST
100
AcDbLine
 10
997.328815553994
 20
3730.793195373492
 30
0.0
 11
997.328815553994
 21
3710.793195373493
 31
0.0
  0
LINE
  5
730
330
1F
100
AcDbEntity
  8
ASSI-PIL
370
    15
100
AcDbLine
 10
1012.328815553993
 20
3701.364519306854
 30
0.0
 11
1012.328815553993
 21
3750.915883525863
 31
0.0
  0
LINE
  5
731
330
1F
100
AcDbEntity
  8
ASSI-PIL
370
    15
100
AcDbLine
 10
1012.328815553993
 20
4436.432577660015
 30
0.0
 11
1012.328815553993
 21
4485.983941879023
 31
0.0
  0
LINE
  5
732
330
1F
100
AcDbEntity
  8
MUR-EST
100
AcDbLine
 10
997.3288155539949
 20
4445.861253726653
 30
0.0
 11
1027.328815553993
 21
4445.861253726653
 31
0.0
  0
LINE
  5
733
330
1F
100
AcDbEntity
  8
MUR-EST
100
AcDbLine
 10
997.328815553994
 20
4475.861253726653
 30
0.0
 11
1027.328815553993
 21
4475.861253726653
 31
0.0
  0
LINE
  5
734
330
1F
100
AcDbEntity
  8
MUR-EST
100
AcDbLine
 10
997.328815553994
 20
4475.861253726653
 30
0.0
 11
997.3288155539949
 21
4445.861253726653
 31
0.0
  0
LINE
  5
735
330
1F
100
AcDbEntity
  8
MUR-EST
100
AcDbLine
 10
1027.328815553993
 20
4475.861253726653
 30
0.0
 11
1027.328815553993
 21
4445.861253726653
 31
0.0
  0
LINE
  5
736
330
1F
100
AcDbEntity
  8
MUR-EST
100
AcDbLine
 10
997.328815553994
 20
4465.861253726653
 30
0.0
 11
997.328815553994
 21
4445.861253726653
 31
0.0
  0
LINE
  5
737
330
1F
100
AcDbEntity
  8
SERR-EST
370
    15
100
AcDbLine
 10
997.3288155539949
 20
5170.861253726655
 30
0.0
 11
997.328815553994
 21
4940.861253726655
 31
0.0
  0
LINE
  5
738
330
1F
100
AcDbEntity
  8
SERR-EST
370
    15
100
AcDbLine
 10
1027.328815553993
 20
5170.861253726655
 30
0.0
 11
1027.328815553993
 21
4940.861253726655
 31
0.0
  0
LINE
  5
739
330
1F
100
AcDbEntity
  8
SERR-EST
370
    15
100
AcDbLine
 10
1012.328815553994
 20
5170.861253726655
 30
0.0
 11
1012.328815553994
 21
4940.861253726655
 31
0.0
  0
LINE
  5
73A
330
1F
100
AcDbEntity
  8
SERR-EST
370
    15
100
AcDbLine
 10
1004.828815553994
 20
5170.861253726655
 30
0.0
 11
1004.828815553994
 21
4940.861253726655
 31
0.0
  0
LINE
  5
73B
330
1F
100
AcDbEntity
  8
MUR-EST
100
AcDbLine
 10
2277.328815553993
 20
4760.861253726651
 30
0.0
 11
2837.328815553992
 21
4760.861253726653
 31
0.0
  0
LINE
  5
73C
330
1F
100
AcDbEntity
  8
ASSI-PIL
370
    15
100
AcDbLine
 10
2207.328815553993
 20
2245.786218631732
 30
0.0
 11
2207.328815553994
 21
2191.014512197147
 31
0.0
  0
LINE
  5
73D
330
1F
100
AcDbEntity
  8
ASSI-PIL
370
    15
100
AcDbLine
 10
2237.328815553994
 20
2219.888972593527
 30
0.0
 11
2177.328815553993
 21
2219.888972593527
 31
0.0
  0
LINE
  5
73E
330
1F
100
AcDbEntity
  8
MUR-EST
100
AcDbLine
 10
997.3288155539902
 20
4940.861253726655
 30
0.0
 11
1027.328815553993
 21
4940.861253726655
 31
0.0
  0
ARC
  5
73F
330
1F
100
AcDbEntity
  8
SERR-INT
370
    15
100
AcDbCircle
 10
1877.328815553992
 20
1095.861253726653
 30
0.0
 40
60.00000000000014
100
AcDbArc
 50
90.0
 51
180.0
  0
LINE
  5
740
330
1F
100
AcDbEntity
  8
SERR-INT
370
    15
100
AcDbLine
 10
1877.328815553992
 20
1095.861253726653
 30
0.0
 11
1877.328815553992
 21
1155.861253726653
 31
0.0
  0
LINE
  5
741
330
1F
100
AcDbEntity
  8
MUR-EST
100
AcDbLine
 10
1877.328815553992
 20
1100.861253726653
 30
0.0
 11
1877.328815553992
 21
1090.861253726653
 31
0.0
  0
LINE
  5
742
330
1F
100
AcDbEntity
  8
SERR-INT
370
    15
100
AcDbLine
 10
1877.328815553992
 20
1095.861253726653
 30
0.0
 11
1817.328815553992
 21
1095.861253726652
 31
0.0
  0
LINE
  5
743
330
1F
100
AcDbEntity
  8
MUR-EST
100
AcDbLine
 10
1877.328815553992
 20
1100.861253726653
 30
0.0
 11
2247.328815553992
 21
1100.861253726653
 31
0.0
  0
LINE
  5
744
330
1F
100
AcDbEntity
  8
MUR-EST
100
AcDbLine
 10
1877.328815553992
 20
1090.861253726654
 30
0.0
 11
2247.328815553992
 21
1090.861253726651
 31
0.0
  0
LINE
  5
745
330
1F
100
AcDbEntity
  8
MUR-EST
100
AcDbLine
 10
1817.328815553992
 20
1100.861253726652
 30
0.0
 11
1817.328815553992
 21
1090.861253726651
 31
0.0
  0
LINE
  5
746
330
1F
100
AcDbEntity
  8
SERR-INT
370
    15
100
AcDbLine
 10
1639.891674734588
 20
1554.888589421231
 30
0.0
 11
1639.891674734588
 21
1367.815444865363
 31
0.0
  0
LINE
  5
747
330
1F
100
AcDbEntity
  8
SERR-EST
370
    15
100
AcDbLine
 10
2860.328815553992
 20
4900.861253726652
 30
0.0
 11
2860.328815553992
 21
4790.861253726652
 31
0.0
  0
LINE
  5
748
330
1F
100
AcDbEntity
  8
MUR-EST
100
AcDbLine
 10
2546.926035191316
 20
4780.861253726651
 30
0.0
 11
2546.926035191316
 21
4760.861253726653
 31
0.0
  0
LINE
  5
749
330
1F
100
AcDbEntity
  8
MUR-EST
100
AcDbLine
 10
2536.926035191316
 20
4780.861253726651
 30
0.0
 11
2536.926035191316
 21
4760.861253726653
 31
0.0
  0
LINE
  5
74A
330
1F
100
AcDbEntity
  8
MUR-EST
100
AcDbLine
 10
2546.926035191316
 20
4900.861253726652
 30
0.0
 11
2546.926035191316
 21
4850.861253726653
 31
0.0
  0
LINE
  5
74B
330
1F
100
AcDbEntity
  8
MUR-EST
100
AcDbLine
 10
2536.926035191316
 20
4900.861253726652
 30
0.0
 11
2536.926035191316
 21
4880.861253726653
 31
0.0
  0
LINE
  5
74C
330
1F
100
AcDbEntity
  8
MUR-EST
100
AcDbLine
 10
1027.328815553993
 20
2288.398956763485
 30
0.0
 11
1577.317470797336
 21
2288.398956763483
 31
0.0
  0
LINE
  5
74D
330
1F
100
AcDbEntity
  8
MUR-EST
100
AcDbLine
 10
1027.328815553993
 20
4740.861253726652
 30
0.0
 11
1027.328815553993
 21
4650.861253726653
 31
0.0
  0
LINE
  5
74E
330
1F
100
AcDbEntity
  8
MUR-EST
100
AcDbLine
 10
2617.328815553992
 20
4100.861253726653
 30
0.0
 11
2617.328815553992
 21
4340.861253726653
 31
0.0
  0
LINE
  5
74F
330
1F
100
AcDbEntity
  8
SCALE
370
    15
100
AcDbLine
 10
2617.328815553992
 20
4730.861253726652
 30
0.0
 11
2617.328815553992
 21
4340.861253726653
 31
0.0
  0
SOLID
  5
750
330
1F
100
AcDbEntity
  8
CANNE
 62
     1
370
    15
100
AcDbTrace
 10
2357.32881555399
 20
4730.861253726652
 30
0.0
 11
2277.328815553993
 21
4660.861253726651
 31
0.0
 12
2277.328815553993
 22
4730.861253726652
 32
0.0
 13
2277.328815553993
 23
4660.861253726651
 33
0.0
  0
SOLID
  5
751
330
1F
100
AcDbEntity
  8
CANNE
 62
     1
370
    15
100
AcDbTrace
 10
2437.32881555399
 20
4730.861253726652
 30
0.0
 11
2367.328815553991
 21
4660.861253726651
 31
0.0
 12
2367.328815553991
 22
4730.861253726652
 32
0.0
 13
2367.328815553991
 23
4660.861253726651
 33
0.0
  0
LINE
  5
752
330
1F
100
AcDbEntity
  8
SERR-EST
370
    15
100
AcDbLine
 10
2853.160417039564
 20
4679.264217542471
 30
0.0
 11
2949.492293432482
 21
4679.264217542472
 31
0.0
  0
LINE
  5
753
330
1F
100
AcDbEntity
  8
SERR-EST
370
    15
100
AcDbLine
 10
2853.32881555399
 20
4679.264217542471
 30
0.0
 11
2853.32881555399
 21
4583.10073966398
 31
0.0
  0
LINE
  5
754
330
1F
100
AcDbEntity
  8
SERR-INT
370
    15
100
AcDbLine
 10
1829.443231180203
 20
1554.762485445787
 30
0.0
 11
1639.891674734588
 21
1554.888589421231
 31
0.0
  0
LINE
  5
755
330
1F
100
AcDbEntity
  8
SCALE
  6
DASHDOT
370
    15
100
AcDbLine
 10
2867.328815553992
 20
2128.742721378872
 30
0.0
 11
3008.671213097802
 21
2210.901325931828
 31
0.0
  0
LINE
  5
756
330
1F
100
AcDbEntity
  8
MUR-EST
100
AcDbLine
 10
3017.328815553993
 20
2210.901325931828
 30
0.0
 11
3017.328815553992
 21
1540.861253726655
 31
0.0
  0
LINE
  5
757
330
1F
100
AcDbEntity
  8
SERR-EST
370
    15
100
AcDbLine
 10
2417.328815553992
 20
1520.861253726655
 30
0.0
 11
2417.328815553992
 21
1590.861253726654
 31
0.0
  0
LINE
  5
758
330
1F
100
AcDbEntity
  8
SERR-EST
370
    15
100
AcDbLine
 10
2467.328815553992
 20
1550.861253726655
 30
0.0
 11
2367.328815553992
 21
1550.861253726653
 31
0.0
  0
LINE
  5
759
330
1F
100
AcDbEntity
  8
SERR-EST
370
    15
100
AcDbLine
 10
2467.328815553992
 20
1545.861253726655
 30
0.0
 11
2367.328815553992
 21
1545.861253726653
 31
0.0
  0
LINE
  5
75A
330
1F
100
AcDbEntity
  8
SERR-EST
370
    15
100
AcDbLine
 10
2467.328815553992
 20
1570.861253726653
 30
0.0
 11
2367.328815553992
 21
1570.861253726653
 31
0.0
  0
LINE
  5
75B
330
1F
100
AcDbEntity
  8
SERR-EST
370
    15
100
AcDbLine
 10
2467.328815553992
 20
1540.861253726655
 30
0.0
 11
2367.328815553992
 21
1540.861253726653
 31
0.0
  0
LINE
  5
75C
330
1F
100
AcDbEntity
  8
MUR-EST
100
AcDbLine
 10
1627.328815553993
 20
1670.861253726655
 30
0.0
 11
1627.328815553993
 21
1559.044126216428
 31
0.0
  0
LINE
  5
75D
330
1F
100
AcDbEntity
  8
MUR-EST
100
AcDbLine
 10
1627.328815553992
 20
1670.861253726655
 30
0.0
 11
1627.328815553992
 21
1570.861253726653
 31
0.0
  0
LINE
  5
75E
330
1F
100
AcDbEntity
  8
MUR-EST
100
AcDbLine
 10
1627.328815553992
 20
1670.861253726655
 30
0.0
 11
1627.328815553992
 21
1570.861253726653
 31
0.0
  0
LINE
  5
75F
330
1F
100
AcDbEntity
  8
MUR-EST
100
AcDbLine
 10
1617.328815553992
 20
1670.861253726655
 30
0.0
 11
1617.328815553992
 21
1570.861253726653
 31
0.0
  0
LINE
  5
760
330
1F
100
AcDbEntity
  8
SERR-INT
370
    15
100
AcDbLine
 10
1617.328815553992
 20
2421.912987673794
 30
0.0
 11
1527.328835470527
 21
2421.972862440801
 31
0.0
  0
ARC
  5
761
330
1F
100
AcDbEntity
  8
SERR-INT
370
    15
100
AcDbCircle
 10
1617.328815553992
 20
2421.912987673794
 30
0.0
 40
89.99999999999985
100
AcDbArc
 50
89.96188253664255
 51
179.9618825366425
  0
LINE
  5
762
330
1F
100
AcDbEntity
  8
SERR-INT
370
    15
100
AcDbLine
 10
1617.328815553992
 20
2421.912987673794
 30
0.0
 11
1617.388690321002
 21
2511.912967757258
 31
0.0
  0
LINE
  5
763
330
1F
100
AcDbEntity
  8
SERR-INT
370
    15
100
AcDbLine
 10
1617.328815553992
 20
2421.912987673794
 30
0.0
 11
1617.382037569112
 21
2501.912969970151
 31
0.0
  0
LINE
  5
764
330
1F
100
AcDbEntity
  8
MUR-EST
100
AcDbLine
 10
1617.328815553992
 20
2421.912987673794
 30
0.0
 11
1617.328815553992
 21
2301.912987673793
 31
0.0
  0
LINE
  5
765
330
1F
100
AcDbEntity
  8
MUR-EST
100
AcDbLine
 10
1617.328815553992
 20
2511.912987673793
 30
0.0
 11
1627.328815553993
 21
2511.912987673793
 31
0.0
  0
LINE
  5
766
330
1F
100
AcDbEntity
  8
MUR-EST
100
AcDbLine
 10
1617.328815553992
 20
2421.912987673794
 30
0.0
 11
1627.328815553992
 21
2421.912987673794
 31
0.0
  0
ARC
  5
767
330
1F
100
AcDbEntity
  8
SERR-INT
370
    15
100
AcDbCircle
 10
2277.328815553994
 20
1860.861253726653
 30
0.0
 40
79.99999999999985
100
AcDbArc
 50
180.0381174633574
 51
270.0381174633574
  0
LINE
  5
768
330
1F
100
AcDbEntity
  8
SERR-INT
370
    15
100
AcDbLine
 10
2277.328815553994
 20
1860.861253726653
 30
0.0
 11
2197.328833257639
 21
1860.808031711537
 31
0.0
  0
LINE
  5
769
330
1F
100
AcDbEntity
  8
SERR-INT
370
    15
100
AcDbLine
 10
2277.328815553994
 20
1860.861253726653
 30
0.0
 11
2277.382037569114
 21
1780.861271430299
 31
0.0
  0
LINE
  5
76A
330
1F
100
AcDbEntity
  8
SERR-INT
370
    15
100
AcDbLine
 10
2277.328815553994
 20
1860.861253726653
 30
0.0
 11
2277.382037569114
 21
1780.861271430297
 31
0.0
  0
LINE
  5
76B
330
1F
100
AcDbEntity
  8
MUR-EST
100
AcDbLine
 10
1837.328815553992
 20
3101.499720429959
 30
0.0
 11
1837.328815553992
 21
2182.058226198119
 31
0.0
  0
LINE
  5
76C
330
1F
100
AcDbEntity
  8
MUR-EST
100
AcDbLine
 10
1857.328815553993
 20
3101.499720429959
 30
0.0
 11
1857.328815553993
 21
2182.058226198119
 31
0.0
  0
LINE
  5
76D
330
1F
100
AcDbEntity
  8
MUR-EST
100
AcDbLine
 10
1837.328815553994
 20
2052.058226198119
 30
0.0
 11
1837.328815553994
 21
1559.044126216428
 31
0.0
  0
LINE
  5
76E
330
1F
100
AcDbEntity
  8
MUR-EST
100
AcDbLine
 10
1857.328815553993
 20
2052.058226198119
 30
0.0
 11
1857.328815553993
 21
1920.861253726653
 31
0.0
  0
LINE
  5
76F
330
1F
100
AcDbEntity
  8
MUR-EST
100
AcDbLine
 10
2367.328815553992
 20
1540.861253726653
 30
0.0
 11
2277.328815553993
 21
1540.861253726655
 31
0.0
  0
LINE
  5
770
330
1F
100
AcDbEntity
  8
MUR-EST
100
AcDbLine
 10
2367.328815553992
 20
1570.861253726653
 30
0.0
 11
2277.328815553993
 21
1570.861253726653
 31
0.0
  0
LINE
  5
771
330
1F
100
AcDbEntity
  8
MUR-EST
100
AcDbLine
 10
2367.328815553992
 20
1570.861253726653
 30
0.0
 11
2367.328815553992
 21
1540.861253726653
 31
0.0
  0
LINE
  5
772
330
1F
100
AcDbEntity
  8
MUR-EST
100
AcDbLine
 10
2467.328815553992
 20
1570.861253726653
 30
0.0
 11
2467.328815553992
 21
1540.861253726655
 31
0.0
  0
LINE
  5
773
330
1F
100
AcDbEntity
  8
MUR-EST
100
AcDbLine
 10
2277.328815553994
 20
1780.861253726655
 30
0.0
 11
2277.328815553993
 21
1570.861253726653
 31
0.0
  0
LINE
  5
774
330
1F
100
AcDbEntity
  8
MUR-EST
100
AcDbLine
 10
2247.328815553992
 20
1780.861253726655
 30
0.0
 11
2247.328815553992
 21
1570.861253726652
 31
0.0
  0
LINE
  5
775
330
1F
100
AcDbEntity
  8
MUR-EST
100
AcDbLine
 10
2247.328815553992
 20
1780.861253726655
 30
0.0
 11
2277.328815553994
 21
1780.861253726655
 31
0.0
  0
LINE
  5
776
330
1F
100
AcDbEntity
  8
MUR-EST
100
AcDbLine
 10
2247.328815553992
 20
1860.861253726653
 30
0.0
 11
2277.328815553994
 21
1860.861253726653
 31
0.0
  0
LINE
  5
777
330
1F
100
AcDbEntity
  8
MUR-EST
100
AcDbLine
 10
1857.328815553993
 20
1920.861253726653
 30
0.0
 11
1917.328815553994
 21
1920.861253726653
 31
0.0
  0
LINE
  5
778
330
1F
100
AcDbEntity
  8
MUR-EST
100
AcDbLine
 10
1857.328815553993
 20
1890.861253726653
 30
0.0
 11
1917.328815553994
 21
1890.861253726652
 31
0.0
  0
LINE
  5
779
330
1F
100
AcDbEntity
  8
SERR-EST
370
    15
100
AcDbLine
 10
2456.926035191316
 20
5186.861253726654
 30
0.0
 11
2336.926035191316
 21
5186.861253726654
 31
0.0
  0
LINE
  5
77A
330
1F
100
AcDbEntity
  8
SERR-EST
370
    15
100
AcDbLine
 10
2456.926035191316
 20
5193.861253726654
 30
0.0
 11
2336.926035191316
 21
5193.861253726654
 31
0.0
  0
LINE
  5
77B
330
1F
100
AcDbEntity
  8
SERR-EST
370
    15
100
AcDbLine
 10
2456.926035191316
 20
5170.861253726655
 30
0.0
 11
2336.926035191316
 21
5170.861253726655
 31
0.0
  0
LINE
  5
77C
330
1F
100
AcDbEntity
  8
SERR-EST
370
    15
100
AcDbLine
 10
2456.926035191316
 20
5200.861253726654
 30
0.0
 11
2336.926035191316
 21
5200.861253726654
 31
0.0
  0
LINE
  5
77D
330
1F
100
AcDbEntity
  8
MUR-EST
100
AcDbLine
 10
2336.926035191316
 20
5200.861253726654
 30
0.0
 11
1607.328815553992
 21
5200.861253726654
 31
0.0
  0
LINE
  5
77E
330
1F
100
AcDbEntity
  8
MUR-EST
100
AcDbLine
 10
2336.926035191316
 20
5170.861253726655
 30
0.0
 11
2247.328815553992
 21
5170.861253726655
 31
0.0
  0
LINE
  5
77F
330
1F
100
AcDbEntity
  8
MUR-EST
100
AcDbLine
 10
2536.926035191316
 20
5170.861253726655
 30
0.0
 11
2536.926035191316
 21
5010.861253726654
 31
0.0
  0
LINE
  5
780
330
1F
100
AcDbEntity
  8
MUR-EST
100
AcDbLine
 10
1577.317470797335
 20
2261.912987673793
 30
0.0
 11
1627.317470797335
 21
2261.912987673793
 31
0.0
  0
LINE
  5
781
330
1F
100
AcDbEntity
  8
MUR-EST
100
AcDbLine
 10
1577.317470797335
 20
2301.912987673793
 30
0.0
 11
1627.317470797335
 21
2301.912987673793
 31
0.0
  0
LINE
  5
782
330
1F
100
AcDbEntity
  8
ASSI-PIL
370
    15
100
AcDbLine
 10
1557.317470797336
 20
2281.912987673793
 30
0.0
 11
1647.317470797335
 21
2281.912987673793
 31
0.0
  0
LINE
  5
783
330
1F
100
AcDbEntity
  8
MUR-EST
100
AcDbLine
 10
1577.317470797335
 20
2301.912987673793
 30
0.0
 11
1577.317470797335
 21
2261.912987673793
 31
0.0
  0
LINE
  5
784
330
1F
100
AcDbEntity
  8
MUR-EST
100
AcDbLine
 10
1627.317470797335
 20
2301.912987673793
 30
0.0
 11
1627.317470797335
 21
2261.912987673793
 31
0.0
  0
LINE
  5
785
330
1F
100
AcDbEntity
  8
ASSI-PIL
370
    15
100
AcDbLine
 10
1602.317470797335
 20
2241.912987673793
 30
0.0
 11
1602.317470797335
 21
2321.912987673792
 31
0.0
  0
LINE
  5
786
330
1F
100
AcDbEntity
  8
MUR-EST
100
AcDbLine
 10
1577.328815553993
 20
4440.786725089907
 30
0.0
 11
1627.328815553993
 21
4440.786725089906
 31
0.0
  0
LINE
  5
787
330
1F
100
AcDbEntity
  8
MUR-EST
100
AcDbLine
 10
1577.328815553993
 20
4480.786725089907
 30
0.0
 11
1627.328815553993
 21
4480.786725089906
 31
0.0
  0
LINE
  5
788
330
1F
100
AcDbEntity
  8
MUR-EST
100
AcDbLine
 10
1627.328815553993
 20
4480.786725089906
 30
0.0
 11
1627.328815553993
 21
4440.786725089907
 31
0.0
  0
LINE
  5
789
330
1F
100
AcDbEntity
  8
MUR-EST
100
AcDbLine
 10
1577.328815553993
 20
4480.786725089906
 30
0.0
 11
1577.328815553993
 21
4440.786725089907
 31
0.0
  0
LINE
  5
78A
330
1F
100
AcDbEntity
  8
ASSI-PIL
370
    15
100
AcDbLine
 10
1602.328815553992
 20
4420.786725089906
 30
0.0
 11
1602.328815553993
 21
4500.786725089906
 31
0.0
  0
LINE
  5
78B
330
1F
100
AcDbEntity
  8
ASSI-PIL
370
    15
100
AcDbLine
 10
1557.328815553992
 20
4460.786725089906
 30
0.0
 11
1647.328815553992
 21
4460.786725089906
 31
0.0
  0
LINE
  5
78C
330
1F
100
AcDbEntity
  8
ASSI-PIL
370
    15
100
AcDbLine
 10
1602.328815553992
 20
3685.800570275669
 30
0.0
 11
1602.328815553993
 21
3765.800570275668
 31
0.0
  0
LINE
  5
78D
330
1F
100
AcDbEntity
  8
MUR-EST
100
AcDbLine
 10
1577.328815553993
 20
3745.800570275668
 30
0.0
 11
1577.328815553993
 21
3705.800570275668
 31
0.0
  0
LINE
  5
78E
330
1F
100
AcDbEntity
  8
MUR-EST
100
AcDbLine
 10
1627.328815553993
 20
3745.800570275668
 30
0.0
 11
1627.328815553993
 21
3705.800570275668
 31
0.0
  0
LINE
  5
78F
330
1F
100
AcDbEntity
  8
MUR-EST
100
AcDbLine
 10
1577.328815553993
 20
3745.800570275668
 30
0.0
 11
1627.328815553993
 21
3745.800570275668
 31
0.0
  0
LINE
  5
790
330
1F
100
AcDbEntity
  8
MUR-EST
100
AcDbLine
 10
1577.328815553993
 20
3705.800570275668
 30
0.0
 11
1627.328815553993
 21
3705.800570275668
 31
0.0
  0
LINE
  5
791
330
1F
100
AcDbEntity
  8
ASSI-PIL
370
    15
100
AcDbLine
 10
1557.328815553992
 20
3725.800570275668
 30
0.0
 11
1647.328815553992
 21
3725.800570275668
 31
0.0
  0
LINE
  5
792
330
1F
100
AcDbEntity
  8
MUR-EST
100
AcDbLine
 10
1577.328815553993
 20
2985.605964938031
 30
0.0
 11
1627.328815553993
 21
2985.605964938031
 31
0.0
  0
LINE
  5
793
330
1F
100
AcDbEntity
  8
MUR-EST
100
AcDbLine
 10
1577.328815553993
 20
3025.60596493803
 30
0.0
 11
1627.328815553993
 21
3025.60596493803
 31
0.0
  0
LINE
  5
794
330
1F
100
AcDbEntity
  8
MUR-EST
100
AcDbLine
 10
1627.328815553993
 20
3025.60596493803
 30
0.0
 11
1627.328815553993
 21
2985.605964938031
 31
0.0
  0
LINE
  5
795
330
1F
100
AcDbEntity
  8
MUR-EST
100
AcDbLine
 10
1577.328815553993
 20
3025.60596493803
 30
0.0
 11
1577.328815553993
 21
2985.605964938031
 31
0.0
  0
LINE
  5
796
330
1F
100
AcDbEntity
  8
ASSI-PIL
370
    15
100
AcDbLine
 10
1602.328815553992
 20
2965.60596493803
 30
0.0
 11
1602.328815553993
 21
3045.60596493803
 31
0.0
  0
LINE
  5
797
330
1F
100
AcDbEntity
  8
ASSI-PIL
370
    15
100
AcDbLine
 10
1557.328815553992
 20
3005.605964938031
 30
0.0
 11
1647.328815553992
 21
3005.605964938031
 31
0.0
  0
ARC
  5
798
330
1F
100
AcDbEntity
  8
SERR-INT
370
    15
100
AcDbCircle
 10
1617.328815553992
 20
3130.861253726654
 30
0.0
 40
99.99999999999985
100
AcDbArc
 50
90.0
 51
180.0
  0
LINE
  5
799
330
1F
100
AcDbEntity
  8
MUR-EST
100
AcDbLine
 10
1617.328815553992
 20
3130.861253726654
 30
0.0
 11
1617.328815553992
 21
3025.60596493803
 31
0.0
  0
LINE
  5
79A
330
1F
100
AcDbEntity
  8
MUR-EST
100
AcDbLine
 10
1627.328815553993
 20
3130.861253726654
 30
0.0
 11
1627.328815553993
 21
2780.861253726654
 31
0.0
  0
LINE
  5
79B
330
1F
100
AcDbEntity
  8
MUR-EST
100
AcDbLine
 10
1617.328815553992
 20
3230.861253726653
 30
0.0
 11
1627.328815553993
 21
3230.861253726653
 31
0.0
  0
LINE
  5
79C
330
1F
100
AcDbEntity
  8
MUR-EST
100
AcDbLine
 10
1617.328815553992
 20
3130.861253726654
 30
0.0
 11
1627.328815553993
 21
3130.861253726654
 31
0.0
  0
LINE
  5
79D
330
1F
100
AcDbEntity
  8
SERR-INT
370
    15
100
AcDbLine
 10
1617.328815553992
 20
3960.861253726654
 30
0.0
 11
1617.328815553992
 21
3870.861253726655
 31
0.0
  0
ARC
  5
79E
330
1F
100
AcDbEntity
  8
SERR-INT
370
    15
100
AcDbCircle
 10
1617.328815553992
 20
3870.861253726655
 30
0.0
 40
89.99999999999985
100
AcDbArc
 50
90.0
 51
180.0
  0
LINE
  5
79F
330
1F
100
AcDbEntity
  8
SERR-INT
370
    15
100
AcDbLine
 10
1617.328815553992
 20
3870.861253726655
 30
0.0
 11
1527.328815553992
 21
3870.861253726655
 31
0.0
  0
LINE
  5
7A0
330
1F
100
AcDbEntity
  8
MUR-EST
100
AcDbLine
 10
1627.328815553993
 20
3870.861253726654
 30
0.0
 11
1627.328815553993
 21
3500.861253726654
 31
0.0
  0
LINE
  5
7A1
330
1F
100
AcDbEntity
  8
MUR-EST
100
AcDbLine
 10
1617.328815553992
 20
3870.861253726654
 30
0.0
 11
1617.328815553992
 21
3745.800570275668
 31
0.0
  0
LINE
  5
7A2
330
1F
100
AcDbEntity
  8
MUR-EST
100
AcDbLine
 10
1617.328815553992
 20
3960.861253726654
 30
0.0
 11
1627.328815553993
 21
3960.861253726654
 31
0.0
  0
LINE
  5
7A3
330
1F
100
AcDbEntity
  8
MUR-EST
100
AcDbLine
 10
1617.328815553992
 20
3870.861253726654
 30
0.0
 11
1627.328815553993
 21
3870.861253726654
 31
0.0
  0
LINE
  5
7A4
330
1F
100
AcDbEntity
  8
MUR-EST
100
AcDbLine
 10
1368.364731662917
 20
4495.078430067984
 30
0.0
 11
1368.364731662917
 21
4470.861253726654
 31
0.0
  0
LINE
  5
7A5
330
1F
100
AcDbEntity
  8
MUR-EST
100
AcDbLine
 10
1348.364731662919
 20
4495.078430067984
 30
0.0
 11
1348.364731662919
 21
4470.861253726654
 31
0.0
  0
LINE
  5
7A6
330
1F
100
AcDbEntity
  8
MUR-EST
100
AcDbLine
 10
1348.364731662919
 20
4495.078430067984
 30
0.0
 11
1368.364731662917
 21
4495.078430067984
 31
0.0
  0
ARC
  5
7A7
330
1F
100
AcDbEntity
  8
SERR-INT
370
    15
100
AcDbCircle
 10
1597.328815553992
 20
4760.861253726653
 30
0.0
 40
89.99999999999985
100
AcDbArc
 50
90.0
 51
180.0
  0
LINE
  5
7A8
330
1F
100
AcDbEntity
  8
MUR-EST
100
AcDbLine
 10
1597.328815553992
 20
4740.861253726654
 30
0.0
 11
1617.328815553992
 21
4740.861253726654
 31
0.0
  0
LINE
  5
7A9
330
1F
100
AcDbEntity
  8
MUR-EST
100
AcDbLine
 10
1597.328815553992
 20
4760.861253726653
 30
0.0
 11
1657.328815553992
 21
4760.861253726653
 31
0.0
  0
LINE
  5
7AA
330
1F
100
AcDbEntity
  8
MUR-EST
100
AcDbLine
 10
1657.328815553992
 20
4740.861253726652
 30
0.0
 11
1737.328815553992
 21
4740.861253726651
 31
0.0
  0
LINE
  5
7AB
330
1F
100
AcDbEntity
  8
MUR-EST
100
AcDbLine
 10
1507.328815553992
 20
4760.861253726653
 30
0.0
 11
1507.328815553992
 21
4740.861253726652
 31
0.0
  0
LINE
  5
7AC
330
1F
100
AcDbEntity
  8
MUR-EST
100
AcDbLine
 10
1597.328815553992
 20
4760.861253726653
 30
0.0
 11
1597.328815553992
 21
4740.861253726652
 31
0.0
  0
ARC
  5
7AD
330
1F
100
AcDbEntity
  8
SERR-INT
370
    15
100
AcDbCircle
 10
1737.328815553992
 20
4760.861253726653
 30
0.0
 40
79.99999999999984
100
AcDbArc
 50
0.0
 51
90.0
  0
LINE
  5
7AE
330
1F
100
AcDbEntity
  8
MUR-EST
100
AcDbLine
 10
1817.328815553992
 20
4760.861253726653
 30
0.0
 11
1837.328815553992
 21
4760.861253726653
 31
0.0
  0
LINE
  5
7AF
330
1F
100
AcDbEntity
  8
MUR-EST
100
AcDbLine
 10
1817.328815553992
 20
4740.861253726651
 30
0.0
 11
1837.328815553992
 21
4740.861253726652
 31
0.0
  0
LINE
  5
7B0
330
1F
100
AcDbEntity
  8
MUR-EST
100
AcDbLine
 10
1737.328815553992
 20
4760.861253726653
 30
0.0
 11
1737.328815553992
 21
4740.861253726651
 31
0.0
  0
LINE
  5
7B1
330
1F
100
AcDbEntity
  8
MUR-EST
100
AcDbLine
 10
1817.328815553992
 20
4760.861253726653
 30
0.0
 11
1817.328815553992
 21
4740.861253726651
 31
0.0
  0
LINE
  5
7B2
330
1F
100
AcDbEntity
  8
MUR-EST
100
AcDbLine
 10
2536.926035191316
 20
4780.861253726651
 30
0.0
 11
2546.926035191316
 21
4780.861253726651
 31
0.0
  0
LINE
  5
7B3
330
1F
100
AcDbEntity
  8
MUR-EST
100
AcDbLine
 10
2536.926035191316
 20
4850.861253726653
 30
0.0
 11
2546.926035191316
 21
4850.861253726653
 31
0.0
  0
LINE
  5
7B4
330
1F
100
AcDbEntity
  8
MUR-EST
100
AcDbLine
 10
2546.926035191318
 20
4980.861253726654
 30
0.0
 11
2536.926035191316
 21
4980.861253726654
 31
0.0
  0
LINE
  5
7B5
330
1F
100
AcDbEntity
  8
MUR-EST
100
AcDbLine
 10
2536.926035191316
 20
4900.861253726652
 30
0.0
 11
2546.926035191316
 21
4900.861253726652
 31
0.0
  0
LINE
  5
7B6
330
1F
100
AcDbEntity
  8
MUR-EST
100
AcDbLine
 10
2867.328815553992
 20
4790.861253726655
 30
0.0
 11
2867.328815553992
 21
4680.861253726652
 31
0.0
  0
LINE
  5
7B7
330
1F
100
AcDbEntity
  8
MUR-EST
100
AcDbLine
 10
2837.328815553992
 20
4790.861253726652
 30
0.0
 11
2837.328815553992
 21
4760.861253726653
 31
0.0
  0
LINE
  5
7B8
330
1F
100
AcDbEntity
  8
MUR-EST
100
AcDbLine
 10
2837.328815553992
 20
4790.861253726652
 30
0.0
 11
2867.328815553992
 21
4790.861253726652
 31
0.0
  0
LINE
  5
7B9
330
1F
100
AcDbEntity
  8
MUR-EST
100
AcDbLine
 10
2837.32881555399
 20
4730.861253726652
 30
0.0
 11
2837.328815553992
 21
4680.861253726651
 31
0.0
  0
LINE
  5
7BA
330
1F
100
AcDbEntity
  8
MUR-EST
100
AcDbLine
 10
2837.328815553992
 20
4580.861253726652
 30
0.0
 11
2867.328815553992
 21
4580.861253726652
 31
0.0
  0
LINE
  5
7BB
330
1F
100
AcDbEntity
  8
SERR-EST
370
    15
100
AcDbLine
 10
2853.328815553992
 20
3620.861253726655
 30
0.0
 11
2853.328815553992
 21
3510.861253726654
 31
0.0
  0
LINE
  5
7BC
330
1F
100
AcDbEntity
  8
SERR-EST
370
    15
100
AcDbLine
 10
2860.328815553992
 20
3620.861253726655
 30
0.0
 11
2860.328815553992
 21
3510.861253726654
 31
0.0
  0
LINE
  5
7BD
330
1F
100
AcDbEntity
  8
SERR-EST
370
    15
100
AcDbLine
 10
2853.32881555399
 20
3960.861253726654
 30
0.0
 11
2853.328815553992
 21
3840.861253726654
 31
0.0
  0
LINE
  5
7BE
330
1F
100
AcDbEntity
  8
SERR-EST
370
    15
100
AcDbLine
 10
2860.328815553991
 20
3960.861253726654
 30
0.0
 11
2860.328815553992
 21
3840.861253726654
 31
0.0
  0
LINE
  5
7BF
330
1F
100
AcDbEntity
  8
SERR-EST
370
    15
100
AcDbLine
 10
2837.328815553992
 20
3620.861253726654
 30
0.0
 11
2837.328815553992
 21
3510.861253726654
 31
0.0
  0
LINE
  5
7C0
330
1F
100
AcDbEntity
  8
SERR-EST
370
    15
100
AcDbLine
 10
2867.328815553992
 20
3620.861253726655
 30
0.0
 11
2867.328815553992
 21
3510.861253726654
 31
0.0
  0
LINE
  5
7C1
330
1F
100
AcDbEntity
  8
SERR-EST
370
    15
100
AcDbLine
 10
2837.328815553992
 20
3960.861253726654
 30
0.0
 11
2837.328815553992
 21
3840.861253726654
 31
0.0
  0
LINE
  5
7C2
330
1F
100
AcDbEntity
  8
SERR-EST
370
    15
100
AcDbLine
 10
2867.328815553991
 20
3960.861253726654
 30
0.0
 11
2867.328815553992
 21
3840.861253726654
 31
0.0
  0
LINE
  5
7C3
330
1F
100
AcDbEntity
  8
MUR-EST
100
AcDbLine
 10
2867.328815553992
 20
3840.861253726654
 30
0.0
 11
2867.328815553992
 21
3620.861253726654
 31
0.0
  0
LINE
  5
7C4
330
1F
100
AcDbEntity
  8
MUR-EST
100
AcDbLine
 10
2837.328815553992
 20
3510.861253726654
 30
0.0
 11
2867.328815553992
 21
3510.861253726654
 31
0.0
  0
LINE
  5
7C5
330
1F
100
AcDbEntity
  8
MUR-EST
100
AcDbLine
 10
2837.328815553992
 20
3620.861253726654
 30
0.0
 11
2867.328815553992
 21
3620.861253726654
 31
0.0
  0
LINE
  5
7C6
330
1F
100
AcDbEntity
  8
MUR-EST
100
AcDbLine
 10
2837.328815553992
 20
3840.861253726654
 30
0.0
 11
2867.328815553992
 21
3840.861253726654
 31
0.0
  0
LINE
  5
7C7
330
1F
100
AcDbEntity
  8
MUR-EST
100
AcDbLine
 10
2837.328815553992
 20
3960.861253726654
 30
0.0
 11
2867.328815553992
 21
3960.861253726654
 31
0.0
  0
LINE
  5
7C8
330
1F
100
AcDbEntity
  8
MUR-EST
100
AcDbLine
 10
2837.328815553989
 20
3215.861253726654
 30
0.0
 11
2867.328815553992
 21
3215.861253726656
 31
0.0
  0
LINE
  5
7C9
330
1F
100
AcDbEntity
  8
SERR-INT
370
    15
100
AcDbLine
 10
2687.328815553992
 20
4094.277107858164
 30
0.0
 11
2777.328815553993
 21
4094.277107858164
 31
0.0
  0
LINE
  5
7CA
330
1F
100
AcDbEntity
  8
MUR-EST
100
AcDbLine
 10
2777.328815553993
 20
4100.861253726653
 30
0.0
 11
2867.328815553992
 21
4100.861253726653
 31
0.0
  0
LINE
  5
7CB
330
1F
100
AcDbEntity
  8
MUR-EST
100
AcDbLine
 10
2687.328815553992
 20
4100.861253726653
 30
0.0
 11
2687.328815553992
 21
4080.861253726652
 31
0.0
  0
LINE
  5
7CC
330
1F
100
AcDbEntity
  8
MUR-EST
100
AcDbLine
 10
2777.328815553993
 20
4100.861253726653
 30
0.0
 11
2777.328815553993
 21
4080.861253726653
 31
0.0
  0
LINE
  5
7CD
330
1F
100
AcDbEntity
  8
MUR-EST
100
AcDbLine
 10
2777.328815553993
 20
4080.861253726652
 30
0.0
 11
2837.328815553992
 21
4080.861253726653
 31
0.0
  0
LINE
  5
7CE
330
1F
100
AcDbEntity
  8
SCALE
370
    15
100
AcDbLine
 10
2926.779073646757
 20
2143.642185179984
 30
0.0
 11
2907.085648146458
 21
2113.559569504773
 31
0.0
  0
LINE
  5
7CF
330
1F
100
AcDbEntity
  8
SCALE
370
    15
100
AcDbLine
 10
2926.779073646758
 20
2027.486134935603
 30
0.0
 11
2926.779073646756
 21
2153.222554316296
 31
0.0
  0
LINE
  5
7D0
330
1F
100
AcDbEntity
  8
SCALE
  6
DASHED
370
    15
100
AcDbLine
 10
2880.099784526374
 20
2143.642185179983
 30
0.0
 11
2867.328815553994
 21
2143.642185179983
 31
0.0
  0
LINE
  5
7D1
330
1F
100
AcDbEntity
  8
SCALE
370
    15
100
AcDbLine
 10
3057.503516473342
 20
4730.861253726654
 30
0.0
 11
2867.328815553992
 21
4730.861253726653
 31
0.0
  0
LINE
  5
7D2
330
1F
100
AcDbEntity
  8
SCALE
370
    15
100
AcDbLine
 10
3057.503516473342
 20
4760.861253726655
 30
0.0
 11
2867.328815553992
 21
4760.861253726655
 31
0.0
  0
LINE
  5
7D3
330
1F
100
AcDbEntity
  8
SCALE
370
    15
100
AcDbLine
 10
2957.328815553991
 20
3901.752047007137
 30
0.0
 11
2920.415595229914
 21
3962.91670184215
 31
0.0
  0
LINE
  5
7D4
330
1F
100
AcDbEntity
  8
SCALE
370
    15
100
AcDbLine
 10
2957.328815553991
 20
3901.752047007137
 30
0.0
 11
2992.996176405359
 21
3962.91670184215
 31
0.0
  0
LINE
  5
7D5
330
1F
100
AcDbEntity
  8
SCALE
370
    15
100
AcDbLine
 10
3057.503516473342
 20
4070.861253726655
 30
0.0
 11
2867.328815553991
 21
4070.861253726655
 31
0.0
  0
LINE
  5
7D6
330
1F
100
AcDbEntity
  8
SCALE
370
    15
100
AcDbLine
 10
3057.503516473342
 20
4040.861253726656
 30
0.0
 11
2867.328815553991
 21
4040.861253726656
 31
0.0
  0
LINE
  5
7D7
330
1F
100
AcDbEntity
  8
SCALE
370
    15
100
AcDbLine
 10
3057.503516473342
 20
4010.861253726655
 30
0.0
 11
2867.328815553991
 21
4010.861253726655
 31
0.0
  0
LINE
  5
7D8
330
1F
100
AcDbEntity
  8
SCALE
370
    15
100
AcDbLine
 10
3057.503516473342
 20
3980.861253726656
 30
0.0
 11
2867.328815553991
 21
3980.861253726656
 31
0.0
  0
LINE
  5
7D9
330
1F
100
AcDbEntity
  8
SCALE
370
    15
100
AcDbLine
 10
3057.503516473342
 20
3950.861253726656
 30
0.0
 11
2883.665005474714
 21
3950.861253726656
 31
0.0
  0
LINE
  5
7DA
330
1F
100
AcDbEntity
  8
SCALE
370
    15
100
AcDbLine
 10
3057.503516473342
 20
3920.861253726656
 30
0.0
 11
2928.665005474714
 21
3920.861253726656
 31
0.0
  0
LINE
  5
7DB
330
1F
100
AcDbEntity
  8
SCALE
370
    15
100
AcDbLine
 10
3057.503516473342
 20
3890.861253726656
 30
0.0
 11
2999.14333123538
 21
3890.861253726656
 31
0.0
  0
LINE
  5
7DC
330
1F
100
AcDbEntity
  8
MUR-EST
100
AcDbLine
 10
2547.328815553994
 20
1890.861253726652
 30
0.0
 11
2547.328815553993
 21
1570.861253726652
 31
0.0
  0
LINE
  5
7DD
330
1F
100
AcDbEntity
  8
MUR-EST
100
AcDbLine
 10
2527.328815553994
 20
1890.861253726652
 30
0.0
 11
2527.328815553993
 21
1570.861253726653
 31
0.0
  0
LINE
  5
7DE
330
1F
100
AcDbEntity
  8
SCALE
370
    15
100
AcDbLine
 10
2625.448257880147
 20
4542.375557501438
 30
0.0
 11
2604.928169831159
 21
4526.571675472713
 31
0.0
  0
LINE
  5
7DF
330
1F
100
AcDbEntity
  8
SCALE
370
    15
100
AcDbLine
 10
2625.448257880147
 20
4542.375557501438
 30
0.0
 11
2604.928169831159
 21
4555.018640977567
 31
0.0
  0
LINE
  5
7E0
330
1F
100
AcDbEntity
  8
SCALE
370
    15
100
AcDbLine
 10
2625.448257880147
 20
4542.375557501438
 30
0.0
 11
2581.21728755432
 21
4542.375557501438
 31
0.0
  0
LINE
  5
7E1
330
1F
100
AcDbEntity
  8
SCALE
370
    15
100
AcDbLine
 10
2587.328815553992
 20
4730.861253726652
 30
0.0
 11
2587.328815553992
 21
4100.861253726653
 31
0.0
  0
LINE
  5
7E2
330
1F
100
AcDbEntity
  8
MUR-EST
100
AcDbLine
 10
2367.328815553991
 20
4730.861253726653
 30
0.0
 11
2357.328815553991
 21
4730.861253726653
 31
0.0
  0
LINE
  5
7E3
330
1F
100
AcDbEntity
  8
MUR-EST
100
AcDbLine
 10
2357.328815553991
 20
4730.861253726652
 30
0.0
 11
2367.328815553991
 21
4730.861253726652
 31
0.0
  0
LINE
  5
7E4
330
1F
100
AcDbEntity
  8
CANNE
370
    15
100
AcDbLine
 10
2277.328815553993
 20
4660.861253726651
 30
0.0
 11
2357.328815553991
 21
4730.861253726652
 31
0.0
  0
LINE
  5
7E5
330
1F
100
AcDbEntity
  8
CANNE
370
    15
100
AcDbLine
 10
2367.328815553991
 20
4660.861253726651
 30
0.0
 11
2437.328815553991
 21
4730.861253726652
 31
0.0
  0
LINE
  5
7E6
330
1F
100
AcDbEntity
  8
CANNE
370
    15
100
AcDbLine
 10
2357.328815553991
 20
4730.861253726653
 30
0.0
 11
2357.328815553991
 21
4660.861253726653
 31
0.0
  0
LINE
  5
7E7
330
1F
100
AcDbEntity
  8
MUR-EST
100
AcDbLine
 10
2277.328815553993
 20
4730.861253726653
 30
0.0
 11
2277.328815553993
 21
4660.861253726653
 31
0.0
  0
LINE
  5
7E8
330
1F
100
AcDbEntity
  8
MUR-EST
100
AcDbLine
 10
2267.328815553992
 20
4730.861253726652
 30
0.0
 11
2267.328815553992
 21
4660.861253726653
 31
0.0
  0
LINE
  5
7E9
330
1F
100
AcDbEntity
  8
CANNE
370
    15
100
AcDbLine
 10
2367.328815553991
 20
4730.861253726653
 30
0.0
 11
2367.328815553991
 21
4660.861253726653
 31
0.0
  0
LINE
  5
7EA
330
1F
100
AcDbEntity
  8
MUR-EST
100
AcDbLine
 10
2267.328815553992
 20
4730.861253726652
 30
0.0
 11
2277.328815553993
 21
4730.861253726652
 31
0.0
  0
LINE
  5
7EB
330
1F
100
AcDbEntity
  8
MUR-EST
100
AcDbLine
 10
2437.328815553991
 20
4730.861253726653
 30
0.0
 11
2437.328815553991
 21
4660.861253726653
 31
0.0
  0
LINE
  5
7EC
330
1F
100
AcDbEntity
  8
MUR-EST
100
AcDbLine
 10
2447.328815553992
 20
4730.861253726653
 30
0.0
 11
2447.328815553992
 21
4650.861253726652
 31
0.0
  0
LINE
  5
7ED
330
1F
100
AcDbEntity
  8
MUR-EST
100
AcDbLine
 10
2187.328815553992
 20
4650.861253726652
 30
0.0
 11
2447.328815553992
 21
4650.861253726652
 31
0.0
  0
LINE
  5
7EE
330
1F
100
AcDbEntity
  8
MUR-EST
100
AcDbLine
 10
2187.32881555399
 20
4730.861253726653
 30
0.0
 11
2187.328815553991
 21
4650.861253726652
 31
0.0
  0
LINE
  5
7EF
330
1F
100
AcDbEntity
  8
MUR-EST
100
AcDbLine
 10
2197.328815553992
 20
4660.861253726651
 30
0.0
 11
2437.328815553991
 21
4660.861253726651
 31
0.0
  0
LINE
  5
7F0
330
1F
100
AcDbEntity
  8
MUR-EST
100
AcDbLine
 10
2197.328815553992
 20
4730.861253726652
 30
0.0
 11
2197.328815553992
 21
4660.861253726653
 31
0.0
  0
LINE
  5
7F1
330
1F
100
AcDbEntity
  8
MUR-EST
100
AcDbLine
 10
2277.328815553993
 20
4870.861253726651
 30
0.0
 11
2536.926035191316
 21
4870.861253726654
 31
0.0
  0
LINE
  5
7F2
330
1F
100
AcDbEntity
  8
MUR-EST
100
AcDbLine
 10
2267.328815553992
 20
4880.861253726653
 30
0.0
 11
2267.328815553992
 21
4760.861253726653
 31
0.0
  0
LINE
  5
7F3
330
1F
100
AcDbEntity
  8
MUR-EST
100
AcDbLine
 10
2277.328815553993
 20
4870.861253726651
 30
0.0
 11
2277.328815553993
 21
4760.861253726653
 31
0.0
  0
LINE
  5
7F4
330
1F
100
AcDbEntity
  8
MUR-EST
100
AcDbLine
 10
2536.926035191316
 20
4870.861253726654
 30
0.0
 11
2536.926035191316
 21
4850.861253726653
 31
0.0
  0
LINE
  5
7F5
330
1F
100
AcDbEntity
  8
MUR-EST
100
AcDbLine
 10
2267.328815553992
 20
4880.861253726653
 30
0.0
 11
2536.926035191316
 21
4880.861253726653
 31
0.0
  0
LINE
  5
7F6
330
1F
100
AcDbEntity
  8
MUR-EST
100
AcDbLine
 10
2536.926035191316
 20
5170.861253726654
 30
0.0
 11
2536.926035191316
 21
4980.861253726654
 31
0.0
  0
LINE
  5
7F7
330
1F
100
AcDbEntity
  8
MUR-EST
100
AcDbLine
 10
2546.926035191316
 20
5170.861253726654
 30
0.0
 11
2546.926035191318
 21
5060.861253726655
 31
0.0
  0
LINE
  5
7F8
330
1F
100
AcDbEntity
  8
MUR-EST
100
AcDbLine
 10
1677.328815553992
 20
5170.861253726655
 30
0.0
 11
2247.328815553992
 21
5170.861253726655
 31
0.0
  0
LINE
  5
7F9
330
1F
100
AcDbEntity
  8
MUR-EST
100
AcDbLine
 10
1677.328815553992
 20
4760.861253726653
 30
0.0
 11
1737.328815553992
 21
4760.861253726653
 31
0.0
  0
LINE
  5
7FA
330
1F
100
AcDbEntity
  8
MUR-EST
100
AcDbLine
 10
1368.364731662917
 20
4740.861253726652
 30
0.0
 11
1507.328815553992
 21
4740.861253726653
 31
0.0
  0
LINE
  5
7FB
330
1F
100
AcDbEntity
  8
MUR-EST
100
AcDbLine
 10
1677.328815553992
 20
5170.861253726655
 30
0.0
 11
1677.328815553992
 21
4760.861253726653
 31
0.0
  0
LINE
  5
7FC
330
1F
100
AcDbEntity
  8
MUR-EST
100
AcDbLine
 10
1657.328815553992
 20
5170.861253726655
 30
0.0
 11
1657.328815553992
 21
4760.861253726653
 31
0.0
  0
LINE
  5
7FD
330
1F
100
AcDbEntity
  8
MUR-EST
100
AcDbLine
 10
1467.328815553992
 20
4740.861253726652
 30
0.0
 11
1507.328815553992
 21
4740.861253726652
 31
0.0
  0
LINE
  5
7FE
330
1F
100
AcDbEntity
  8
MUR-EST
100
AcDbLine
 10
1368.364731662917
 20
4740.861253726652
 30
0.0
 11
1368.364731662917
 21
4565.078430067984
 31
0.0
  0
LINE
  5
7FF
330
1F
100
AcDbEntity
  8
MUR-EST
100
AcDbLine
 10
1837.328815553992
 20
4760.861253726653
 30
0.0
 11
2267.328815553992
 21
4760.861253726653
 31
0.0
  0
LINE
  5
800
330
1F
100
AcDbEntity
  8
MUR-EST
100
AcDbLine
 10
1027.328815553993
 20
4740.861253726652
 30
0.0
 11
1347.328815553994
 21
4740.861253726652
 31
0.0
  0
LINE
  5
801
330
1F
100
AcDbEntity
  8
MUR-EST
100
AcDbLine
 10
2837.328815553992
 20
4080.861253726653
 30
0.0
 11
2837.328815553992
 21
4000.861253726654
 31
0.0
  0
LINE
  5
802
330
1F
100
AcDbEntity
  8
MUR-EST
100
AcDbLine
 10
2617.328815553992
 20
5170.861253726655
 30
0.0
 11
2546.926035191316
 21
5170.861253726654
 31
0.0
  0
LINE
  5
803
330
1F
100
AcDbEntity
  8
MUR-EST
100
AcDbLine
 10
2647.328815553992
 20
4100.861253726653
 30
0.0
 11
2687.328815553992
 21
4100.861253726653
 31
0.0
  0
LINE
  5
804
330
1F
100
AcDbEntity
  8
MUR-EST
100
AcDbLine
 10
2647.328815553992
 20
4310.861253726653
 30
0.0
 11
2867.328815553992
 21
4310.861253726653
 31
0.0
  0
LINE
  5
805
330
1F
100
AcDbEntity
  8
MUR-EST
100
AcDbLine
 10
2617.328815553992
 20
4340.861253726653
 30
0.0
 11
2837.328815553992
 21
4340.861253726653
 31
0.0
  0
LINE
  5
806
330
1F
100
AcDbEntity
  8
MUR-EST
100
AcDbLine
 10
2647.328815553992
 20
4310.861253726653
 30
0.0
 11
2647.328815553992
 21
4100.861253726653
 31
0.0
  0
LINE
  5
807
330
1F
100
AcDbEntity
  8
MUR-EST
100
AcDbLine
 10
2837.328815553992
 20
3350.861253726653
 30
0.0
 11
2837.328815553992
 21
3270.861253726655
 31
0.0
  0
LINE
  5
808
330
1F
100
AcDbEntity
  8
MUR-EST
100
AcDbLine
 10
2247.328815553992
 20
1550.861253726651
 30
0.0
 11
2247.328815553992
 21
1300.861253726655
 31
0.0
  0
LINE
  5
809
330
1F
100
AcDbEntity
  8
MUR-EST
100
AcDbLine
 10
2277.328815553993
 20
1540.861253726655
 30
0.0
 11
2277.328815553991
 21
820.8612537266562
 31
0.0
  0
LINE
  5
80A
330
1F
100
AcDbEntity
  8
MUR-EST
100
AcDbLine
 10
2247.328815553992
 20
1570.861253726653
 30
0.0
 11
2237.328815553992
 21
1570.861253726653
 31
0.0
  0
LINE
  5
80B
330
1F
100
AcDbEntity
  8
MUR-EST
100
AcDbLine
 10
2837.328815553992
 20
1570.861253726653
 30
0.0
 11
2547.328815553993
 21
1570.861253726653
 31
0.0
  0
LINE
  5
80C
330
1F
100
AcDbEntity
  8
MUR-EST
100
AcDbLine
 10
1867.328815553994
 20
4080.861253726652
 30
0.0
 11
1867.328815553994
 21
4012.806799034236
 31
0.0
  0
LINE
  5
80D
330
1F
100
AcDbEntity
  8
MUR-EST
100
AcDbLine
 10
1867.328815553994
 20
4730.861253726653
 30
0.0
 11
1867.328815553994
 21
4100.861253726653
 31
0.0
  0
LINE
  5
80E
330
1F
100
AcDbEntity
  8
MUR-EST
100
AcDbLine
 10
1857.328815553993
 20
3350.861253726653
 30
0.0
 11
1857.328815553993
 21
3231.499720429959
 31
0.0
  0
LINE
  5
80F
330
1F
100
AcDbEntity
  8
MUR-EST
100
AcDbLine
 10
1027.328815553993
 20
4760.861253726653
 30
0.0
 11
1348.364731662919
 21
4760.861253726653
 31
0.0
  0
LINE
  5
810
330
1F
100
AcDbEntity
  8
MUR-EST
100
AcDbLine
 10
1867.328815553994
 20
4730.861253726653
 30
0.0
 11
2837.32881555399
 21
4730.861253726652
 31
0.0
  0
LINE
  5
811
330
1F
100
AcDbEntity
  8
MUR-EST
100
AcDbLine
 10
1867.328815553994
 20
4100.861253726651
 30
0.0
 11
2617.328815553992
 21
4100.861253726653
 31
0.0
  0
LINE
  5
812
330
1F
100
AcDbEntity
  8
MUR-EST
100
AcDbLine
 10
1867.328815553994
 20
4080.861253726651
 30
0.0
 11
2687.328815553992
 21
4080.861253726652
 31
0.0
  0
LINE
  5
813
330
1F
100
AcDbEntity
  8
MUR-EST
100
AcDbLine
 10
1867.328815553994
 20
3380.861253726653
 30
0.0
 11
2837.328815553992
 21
3380.861253726653
 31
0.0
  0
LINE
  5
814
330
1F
100
AcDbEntity
  8
MUR-EST
100
AcDbLine
 10
1027.328815553992
 20
1570.861253726655
 30
0.0
 11
1467.328815553992
 21
1570.861253726655
 31
0.0
  0
LINE
  5
815
330
1F
100
AcDbEntity
  8
MUR-EST
100
AcDbLine
 10
1857.328815553993
 20
3350.861253726653
 30
0.0
 11
2837.328815553992
 21
3350.861253726653
 31
0.0
  0
LINE
  5
816
330
1F
100
AcDbEntity
  8
SCALE
  6
DASHDOT
370
    15
100
AcDbLine
 10
1597.328815553992
 20
1031.415339858754
 30
0.0
 11
1807.328815553992
 21
1164.046918806122
 31
0.0
  0
LINE
  5
817
330
1F
100
AcDbEntity
  8
MUR-EST
100
AcDbLine
 10
1797.328815553992
 20
1090.861253726651
 30
0.0
 11
1817.328815553992
 21
1090.861253726651
 31
0.0
  0
LINE
  5
818
330
1F
100
AcDbEntity
  8
MUR-EST
100
AcDbLine
 10
1807.328815553992
 20
1100.861253726652
 30
0.0
 11
1817.328815553992
 21
1100.861253726652
 31
0.0
  0
LINE
  5
819
330
1F
100
AcDbEntity
  8
MUR-EST
100
AcDbLine
 10
1829.443231180203
 20
1550.861253726653
 30
0.0
 11
2247.328815553992
 21
1550.861253726651
 31
0.0
  0
LINE
  5
81A
330
1F
100
AcDbEntity
  8
MUR-EST
100
AcDbLine
 10
1797.328815553992
 20
1320.861253726653
 30
0.0
 11
1807.328815553992
 21
1320.861253726653
 31
0.0
  0
LINE
  5
81B
330
1F
100
AcDbEntity
  8
MUR-EST
100
AcDbLine
 10
2277.328815553994
 20
1890.861253726652
 30
0.0
 11
2277.328815553994
 21
1860.861253726653
 31
0.0
  0
LINE
  5
81C
330
1F
100
AcDbEntity
  8
MUR-EST
100
AcDbLine
 10
1627.328815553992
 20
850.8612537266543
 30
0.0
 11
2247.328815553992
 21
850.8612537266552
 31
0.0
  0
LINE
  5
81D
330
1F
100
AcDbEntity
  8
MUR-EST
100
AcDbLine
 10
1597.328815553992
 20
820.8612537266542
 30
0.0
 11
2277.328815553991
 21
820.8612537266562
 31
0.0
  0
LINE
  5
81E
330
1F
100
AcDbEntity
  8
MUR-EST
100
AcDbLine
 10
2987.328815553992
 20
2186.001862130716
 30
0.0
 11
2987.328815553992
 21
1570.861253726653
 31
0.0
  0
LINE
  5
81F
330
1F
100
AcDbEntity
  8
MUR-EST
100
AcDbLine
 10
3087.503516473342
 20
5200.861253726654
 30
0.0
 11
3087.503516473365
 21
3849.972016886692
 31
0.0
  0
LINE
  5
820
330
1F
100
AcDbEntity
  8
MUR-EST
100
AcDbLine
 10
3057.503516473342
 20
5170.861253726655
 30
0.0
 11
3057.503516473342
 21
3867.025412655048
 31
0.0
  0
LINE
  5
821
330
1F
100
AcDbEntity
  8
MUR-EST
100
AcDbLine
 10
1617.328815553992
 20
4305.521244011365
 30
0.0
 11
1617.328815553992
 21
3960.861253726654
 31
0.0
  0
LINE
  5
822
330
1F
100
AcDbEntity
  8
MUR-EST
100
AcDbLine
 10
1617.328815553992
 20
3705.800570275668
 30
0.0
 11
1617.328815553994
 21
3500.861253726654
 31
0.0
  0
LINE
  5
823
330
1F
100
AcDbEntity
  8
MUR-EST
100
AcDbLine
 10
1617.328815553992
 20
2985.605964938031
 30
0.0
 11
1617.328815553992
 21
2780.861253726654
 31
0.0
  0
LINE
  5
824
330
1F
100
AcDbEntity
  8
MUR-EST
100
AcDbLine
 10
1617.328815553992
 20
3500.861253726654
 30
0.0
 11
1617.328815553992
 21
3230.861253726653
 31
0.0
  0
LINE
  5
825
330
1F
100
AcDbEntity
  8
MUR-EST
100
AcDbLine
 10
1617.328815553992
 20
2780.861253726654
 30
0.0
 11
1617.328815553992
 21
2511.912987673793
 31
0.0
  0
LINE
  5
826
330
1F
100
AcDbEntity
  8
MUR-EST
100
AcDbLine
 10
1597.328815553992
 20
1540.861253726655
 30
0.0
 11
1597.328815553992
 21
820.8612537266542
 31
0.0
  0
LINE
  5
827
330
1F
100
AcDbEntity
  8
MUR-EST
100
AcDbLine
 10
1617.328815553992
 20
2261.912987673793
 30
0.0
 11
1617.328815553992
 21
1760.861253726653
 31
0.0
  0
LINE
  5
828
330
1F
100
AcDbEntity
  8
MUR-EST
100
AcDbLine
 10
1627.328815553992
 20
2421.912987673794
 30
0.0
 11
1627.328815553992
 21
1760.861253726653
 31
0.0
  0
LINE
  5
829
330
1F
100
AcDbEntity
  8
MUR-EST
100
AcDbLine
 10
1627.328815553992
 20
2040.861253726653
 30
0.0
 11
1627.328815553992
 21
1770.861253726655
 31
0.0
  0
LINE
  5
82A
330
1F
100
AcDbEntity
  8
MUR-EST
100
AcDbLine
 10
997.3288155539922
 20
1540.861253726655
 30
0.0
 11
1467.328815553992
 21
1540.861253726655
 31
0.0
  0
LINE
  5
82B
330
1F
100
AcDbEntity
  8
MUR-EST
100
AcDbLine
 10
2837.328815553992
 20
2055.766948654323
 30
0.0
 11
2837.328815553992
 21
1920.861253726653
 31
0.0
  0
LINE
  5
82C
330
1F
100
AcDbEntity
  8
MUR-EST
100
AcDbLine
 10
2867.328815553992
 20
2055.766948654323
 30
0.0
 11
2867.328815553992
 21
1875.861253726653
 31
0.0
  0
LINE
  5
82D
330
1F
100
AcDbEntity
  8
MUR-EST
100
AcDbLine
 10
2247.328815553992
 20
960.8612537266534
 30
0.0
 11
2247.328815553992
 21
940.8612537266543
 31
0.0
  0
LINE
  5
82E
330
1F
100
AcDbEntity
  8
MUR-EST
100
AcDbLine
 10
2247.328815553992
 20
1080.861253726652
 30
0.0
 11
2247.328815553992
 21
1060.861253726653
 31
0.0
  0
LINE
  5
82F
330
1F
100
AcDbEntity
  8
MUR-EST
100
AcDbLine
 10
2247.328815553992
 20
1300.861253726653
 30
0.0
 11
2247.328815553992
 21
1100.861253726652
 31
0.0
  0
LINE
  5
830
330
1F
100
AcDbEntity
  8
MUR-EST
100
AcDbLine
 10
2247.328815553992
 20
1320.861253726653
 30
0.0
 11
2247.328815553992
 21
1300.861253726655
 31
0.0
  0
LINE
  5
831
330
1F
100
AcDbEntity
  8
MUR-EST
100
AcDbLine
 10
2247.328815553992
 20
1440.861253726652
 30
0.0
 11
2247.328815553992
 21
1420.861253726653
 31
0.0
  0
LINE
  5
832
330
1F
100
AcDbEntity
  8
MUR-EST
100
AcDbLine
 10
2237.328815553992
 20
1570.861253726653
 30
0.0
 11
2187.328815553992
 21
1570.861253726653
 31
0.0
  0
LINE
  5
833
330
1F
100
AcDbEntity
  8
MUR-EST
100
AcDbLine
 10
2247.328815553992
 20
1890.861253726653
 30
0.0
 11
2247.328815553992
 21
1860.861253726653
 31
0.0
  0
LINE
  5
834
330
1F
100
AcDbEntity
  8
SCALE
370
    15
100
AcDbLine
 10
1712.611639437338
 20
1152.402556585219
 30
0.0
 11
1728.615902250305
 21
1197.009054859804
 31
0.0
  0
LINE
  5
835
330
1F
100
AcDbEntity
  8
SCALE
370
    15
100
AcDbLine
 10
1769.828815553992
 20
1170.861253726655
 30
0.0
 11
1769.828815553992
 21
1170.861253726655
 31
0.0
  0
LINE
  5
836
330
1F
100
AcDbEntity
  8
SCALE
370
    15
100
AcDbLine
 10
1769.828815553992
 20
1170.861253726655
 30
0.0
 11
1769.828815553992
 21
1170.861253726655
 31
0.0
  0
LINE
  5
837
330
1F
100
AcDbEntity
  8
SCALE
370
    15
100
AcDbLine
 10
1712.328815553992
 20
1151.462451772314
 30
0.0
 11
1694.828815553992
 21
1197.162076294048
 31
0.0
  0
LINE
  5
838
330
1F
100
AcDbEntity
  8
SCALE
370
    15
100
AcDbLine
 10
1712.328815553992
 20
1167.162076294048
 30
0.0
 11
1712.328815553992
 21
1290.861253726653
 31
0.0
  0
LINE
  5
839
330
1F
100
AcDbEntity
  8
MUR-EST
100
AcDbLine
 10
1807.328815553992
 20
1320.861253726653
 30
0.0
 11
1807.328815553992
 21
1100.861253726652
 31
0.0
  0
LINE
  5
83A
330
1F
100
AcDbEntity
  8
MUR-EST
100
AcDbLine
 10
1797.328815553992
 20
1320.861253726653
 30
0.0
 11
1797.328815553992
 21
1090.861253726651
 31
0.0
  0
LINE
  5
83B
330
1F
100
AcDbEntity
  8
SERR-INT
370
    15
100
AcDbLine
 10
1507.328815553992
 20
4760.861253726653
 30
0.0
 11
1597.328815553992
 21
4760.861253726653
 31
0.0
  0
LINE
  5
83C
330
1F
100
AcDbEntity
  8
SERR-INT
370
    15
100
AcDbLine
 10
1597.328815553992
 20
4760.861253726653
 30
0.0
 11
1597.328815553992
 21
4850.861253726653
 31
0.0
  0
LINE
  5
83D
330
1F
100
AcDbEntity
  8
MUR-EST
100
AcDbLine
 10
2597.328815553992
 20
1570.861253726653
 30
0.0
 11
2627.328815553991
 21
1570.861253726653
 31
0.0
  0
LINE
  5
83E
330
1F
100
AcDbEntity
  8
MUR-EST
100
AcDbLine
 10
3017.328815553992
 20
1540.861253726655
 30
0.0
 11
2467.328815553992
 21
1540.861253726655
 31
0.0
  0
LINE
  5
83F
330
1F
100
AcDbEntity
  8
MUR-EST
100
AcDbLine
 10
2987.328815553992
 20
1570.861253726653
 30
0.0
 11
2867.328815553994
 21
1570.861253726653
 31
0.0
  0
LINE
  5
840
330
1F
100
AcDbEntity
  8
MUR-EST
100
AcDbLine
 10
2837.328815553992
 20
3270.861253726656
 30
0.0
 11
2837.328815553992
 21
3215.626378345879
 31
0.0
  0
LINE
  5
841
330
1F
100
AcDbEntity
  8
MUR-EST
100
AcDbLine
 10
2837.328815553992
 20
3216.331004488207
 30
0.0
 11
2837.328815553992
 21
3215.861253726654
 31
0.0
  0
LINE
  5
842
330
1F
100
AcDbEntity
  8
MUR-EST
100
AcDbLine
 10
2837.328815553992
 20
3510.861253726654
 30
0.0
 11
2837.328815553992
 21
3470.861253726655
 31
0.0
  0
LINE
  5
843
330
1F
100
AcDbEntity
  8
MUR-EST
100
AcDbLine
 10
2837.328815553992
 20
3510.861253726654
 30
0.0
 11
2837.328815553992
 21
3470.861253726655
 31
0.0
  0
LINE
  5
844
330
1F
100
AcDbEntity
  8
MUR-EST
100
AcDbLine
 10
2837.328815553992
 20
3500.861253726654
 30
0.0
 11
2837.328815553992
 21
3470.861253726655
 31
0.0
  0
LINE
  5
845
330
1F
100
AcDbEntity
  8
MUR-EST
100
AcDbLine
 10
2837.328815553992
 20
3470.861253726655
 30
0.0
 11
2837.328815553992
 21
3380.861253726653
 31
0.0
  0
LINE
  5
846
330
1F
100
AcDbEntity
  8
MUR-EST
100
AcDbLine
 10
2867.328815553992
 20
3510.861253726654
 30
0.0
 11
2867.328815553991
 21
3215.861253726656
 31
0.0
  0
LINE
  5
847
330
1F
100
AcDbEntity
  8
MUR-EST
100
AcDbLine
 10
2837.328815553992
 20
3770.861253726655
 30
0.0
 11
2837.328815553992
 21
3720.861253726655
 31
0.0
  0
LINE
  5
848
330
1F
100
AcDbEntity
  8
MUR-EST
100
AcDbLine
 10
2837.328815553992
 20
3980.861253726653
 30
0.0
 11
2837.328815553992
 21
3960.861253726654
 31
0.0
  0
LINE
  5
849
330
1F
100
AcDbEntity
  8
MUR-EST
100
AcDbLine
 10
2867.328815553992
 20
4100.861253726653
 30
0.0
 11
2867.328815553992
 21
3960.861253726654
 31
0.0
  0
LINE
  5
84A
330
1F
100
AcDbEntity
  8
MUR-EST
100
AcDbLine
 10
2837.328815553992
 20
4000.861253726654
 30
0.0
 11
2837.328815553992
 21
3960.861253726654
 31
0.0
  0
LINE
  5
84B
330
1F
100
AcDbEntity
  8
MUR-EST
100
AcDbLine
 10
2837.328815553992
 20
4000.861253726654
 30
0.0
 11
2837.328815553992
 21
3960.861253726654
 31
0.0
  0
LINE
  5
84C
330
1F
100
AcDbEntity
  8
MUR-EST
100
AcDbLine
 10
2837.328815553992
 20
3840.861253726654
 30
0.0
 11
2837.328815553992
 21
3770.861253726655
 31
0.0
  0
LINE
  5
84D
330
1F
100
AcDbEntity
  8
MUR-EST
100
AcDbLine
 10
2837.328815553992
 20
4470.861253726654
 30
0.0
 11
2837.328815553992
 21
4450.861253726654
 31
0.0
  0
LINE
  5
84E
330
1F
100
AcDbEntity
  8
MUR-EST
100
AcDbLine
 10
2837.328815553992
 20
4450.861253726654
 30
0.0
 11
2837.328815553992
 21
4340.861253726653
 31
0.0
  0
LINE
  5
84F
330
1F
100
AcDbEntity
  8
MUR-EST
100
AcDbLine
 10
2837.328815553992
 20
3720.861253726655
 30
0.0
 11
2837.328815553992
 21
3620.861253726654
 31
0.0
  0
LINE
  5
850
330
1F
100
AcDbEntity
  8
SERR-EST
370
    15
100
AcDbLine
 10
2854.775670981004
 20
4790.861253726652
 30
0.0
 11
2854.775670981004
 21
4900.861253726652
 31
0.0
  0
LINE
  5
851
330
1F
100
AcDbEntity
  8
SERR-INT
370
    15
100
AcDbLine
 10
1737.328815553992
 20
4760.861253726653
 30
0.0
 11
1817.328815553992
 21
4760.861253726653
 31
0.0
  0
LINE
  5
852
330
1F
100
AcDbEntity
  8
SERR-INT
370
    15
100
AcDbLine
 10
1737.328815553992
 20
4760.861253726653
 30
0.0
 11
1737.328815553992
 21
4840.861253726653
 31
0.0
  0
LINE
  5
853
330
1F
100
AcDbEntity
  8
MUR-EST
100
AcDbLine
 10
1627.328815553992
 20
960.8612537266562
 30
0.0
 11
1627.328815553992
 21
940.861253726657
 31
0.0
  0
LINE
  5
854
330
1F
100
AcDbEntity
  8
MUR-EST
100
AcDbLine
 10
1627.328815553992
 20
1080.861253726655
 30
0.0
 11
1627.328815553992
 21
1060.861253726656
 31
0.0
  0
LINE
  5
855
330
1F
100
AcDbEntity
  8
MUR-EST
100
AcDbLine
 10
1627.328815553992
 20
1550.861253726653
 30
0.0
 11
1627.328815553992
 21
850.8612537266543
 31
0.0
  0
LINE
  5
856
330
1F
100
AcDbEntity
  8
MUR-EST
100
AcDbLine
 10
1627.328815553993
 20
1320.861253726653
 30
0.0
 11
1627.328815553993
 21
1300.861253726655
 31
0.0
  0
LINE
  5
857
330
1F
100
AcDbEntity
  8
MUR-EST
100
AcDbLine
 10
1627.328815553992
 20
1440.861253726652
 30
0.0
 11
1627.328815553992
 21
1420.861253726653
 31
0.0
  0
LINE
  5
858
330
1F
100
AcDbEntity
  8
MUR-EST
100
AcDbLine
 10
1857.328815553993
 20
1570.861253726653
 30
0.0
 11
2187.328815553992
 21
1570.861253726653
 31
0.0
  0
LINE
  5
859
330
1F
100
AcDbEntity
  8
MUR-EST
100
AcDbLine
 10
997.328815553994
 20
2073.398956763484
 30
0.0
 11
1027.328815553994
 21
2073.398956763484
 31
0.0
  0
LINE
  5
85A
330
1F
100
AcDbEntity
  8
MUR-EST
100
AcDbLine
 10
997.328815553994
 20
2073.398956763484
 30
0.0
 11
1027.328815553993
 21
2073.398956763484
 31
0.0
  0
LINE
  5
85B
330
1F
100
AcDbEntity
  8
MUR-EST
100
AcDbLine
 10
997.328815553994
 20
2073.398956763484
 30
0.0
 11
1027.328815553993
 21
2073.398956763484
 31
0.0
  0
LINE
  5
85C
330
1F
100
AcDbEntity
  8
MUR-EST
100
AcDbLine
 10
1027.328815553993
 20
2073.398956763484
 30
0.0
 11
1027.328815553992
 21
1775.861253726655
 31
0.0
  0
LINE
  5
85D
330
1F
100
AcDbEntity
  8
MUR-EST
100
AcDbLine
 10
997.328815553994
 20
2073.398956763484
 30
0.0
 11
997.3288155539922
 21
1775.861253726653
 31
0.0
  0
LINE
  5
85E
330
1F
100
AcDbEntity
  8
SERR-EST
370
    15
100
AcDbLine
 10
1004.828815553994
 20
2493.398956763485
 30
0.0
 11
1004.828815553994
 21
2373.398956763484
 31
0.0
  0
LINE
  5
85F
330
1F
100
AcDbEntity
  8
SERR-EST
370
    15
100
AcDbLine
 10
1012.328815553994
 20
2493.398956763485
 30
0.0
 11
1012.328815553994
 21
2373.398956763484
 31
0.0
  0
LINE
  5
860
330
1F
100
AcDbEntity
  8
SERR-EST
370
    15
100
AcDbLine
 10
1027.328815553993
 20
2493.398956763485
 30
0.0
 11
1027.328815553993
 21
2373.398956763484
 31
0.0
  0
LINE
  5
861
330
1F
100
AcDbEntity
  8
SERR-EST
370
    15
100
AcDbLine
 10
997.328815553994
 20
2493.398956763485
 30
0.0
 11
997.328815553994
 21
2373.398956763484
 31
0.0
  0
LINE
  5
862
330
1F
100
AcDbEntity
  8
SERR-EST
370
    15
100
AcDbLine
 10
997.328815553994
 20
2193.398956763485
 30
0.0
 11
997.328815553994
 21
2073.398956763484
 31
0.0
  0
LINE
  5
863
330
1F
100
AcDbEntity
  8
SERR-EST
370
    15
100
AcDbLine
 10
1027.328815553994
 20
2193.398956763485
 30
0.0
 11
1027.328815553994
 21
2073.398956763484
 31
0.0
  0
LINE
  5
864
330
1F
100
AcDbEntity
  8
SERR-EST
370
    15
100
AcDbLine
 10
1012.328815553994
 20
2193.398956763485
 30
0.0
 11
1012.328815553995
 21
2073.398956763484
 31
0.0
  0
LINE
  5
865
330
1F
100
AcDbEntity
  8
SERR-EST
370
    15
100
AcDbLine
 10
1004.828815553994
 20
2193.398956763485
 30
0.0
 11
1004.828815553995
 21
2073.398956763484
 31
0.0
  0
LINE
  5
866
330
1F
100
AcDbEntity
  8
MUR-EST
100
AcDbLine
 10
1027.328815553993
 20
2278.398956763485
 30
0.0
 11
1577.317470797336
 21
2278.398956763484
 31
0.0
  0
LINE
  5
867
330
1F
100
AcDbEntity
  8
SERR-EST
370
    15
100
AcDbLine
 10
1027.328815553992
 20
1775.861253726655
 30
0.0
 11
1027.328815553992
 21
1655.861253726655
 31
0.0
  0
LINE
  5
868
330
1F
100
AcDbEntity
  8
SERR-EST
370
    15
100
AcDbLine
 10
1004.828815553992
 20
1775.861253726655
 30
0.0
 11
1004.828815553992
 21
1655.861253726655
 31
0.0
  0
LINE
  5
869
330
1F
100
AcDbEntity
  8
SERR-EST
370
    15
100
AcDbLine
 10
1012.328815553993
 20
1775.861253726655
 30
0.0
 11
1012.328815553993
 21
1655.861253726655
 31
0.0
  0
LINE
  5
86A
330
1F
100
AcDbEntity
  8
SERR-EST
370
    15
100
AcDbLine
 10
997.3288155539922
 20
1775.861253726655
 30
0.0
 11
997.3288155539922
 21
1655.861253726655
 31
0.0
  0
LINE
  5
86B
330
1F
100
AcDbEntity
  8
MUR-EST
100
AcDbLine
 10
1627.328815553993
 20
2040.861253726653
 30
0.0
 11
1627.328815553993
 21
1770.861253726655
 31
0.0
  0
LINE
  5
86C
330
1F
100
AcDbEntity
  8
SERR-INT
370
    15
100
AcDbLine
 10
1617.328815553992
 20
3130.861253726654
 30
0.0
 11
1517.328815553992
 21
3130.861253726656
 31
0.0
  0
LINE
  5
86D
330
1F
100
AcDbEntity
  8
SERR-INT
370
    15
100
AcDbLine
 10
1617.328815553992
 20
3130.861253726654
 30
0.0
 11
1617.328815553992
 21
3230.861253726653
 31
0.0
  0
LINE
  5
86E
330
1F
100
AcDbEntity
  8
MUR-EST
100
AcDbLine
 10
1627.328815553993
 20
3500.861253726654
 30
0.0
 11
1627.328815553993
 21
3230.861253726653
 31
0.0
  0
LINE
  5
86F
330
1F
100
AcDbEntity
  8
MUR-EST
100
AcDbLine
 10
997.328815553994
 20
2991.02270156893
 30
0.0
 11
997.328815553994
 21
2915.861253726655
 31
0.0
  0
LINE
  5
870
330
1F
100
AcDbEntity
  8
MUR-EST
100
AcDbLine
 10
1027.328815553993
 20
2991.02270156893
 30
0.0
 11
1027.328815553994
 21
2915.861253726655
 31
0.0
  0
LINE
  5
871
330
1F
100
AcDbEntity
  8
SERR-EST
370
    15
100
AcDbLine
 10
1012.328815553994
 20
2915.861253726655
 30
0.0
 11
1012.328815553995
 21
2795.861253726655
 31
0.0
  0
LINE
  5
872
330
1F
100
AcDbEntity
  8
SERR-EST
370
    15
100
AcDbLine
 10
1004.828815553994
 20
2915.861253726655
 30
0.0
 11
1004.828815553995
 21
2795.861253726655
 31
0.0
  0
LINE
  5
873
330
1F
100
AcDbEntity
  8
MUR-EST
100
AcDbLine
 10
1027.328815553992
 20
4205.861253726653
 30
0.0
 11
1027.328815553993
 21
3935.861253726654
 31
0.0
  0
LINE
  5
874
330
1F
100
AcDbEntity
  8
MUR-EST
100
AcDbLine
 10
997.328815553994
 20
3990.861253726654
 30
0.0
 11
997.3288155539949
 21
3935.861253726654
 31
0.0
  0
LINE
  5
875
330
1F
100
AcDbEntity
  8
MUR-EST
100
AcDbLine
 10
997.3288155539931
 20
3935.861253726654
 30
0.0
 11
1027.328815553993
 21
3935.861253726654
 31
0.0
  0
LINE
  5
876
330
1F
100
AcDbEntity
  8
MUR-EST
100
AcDbLine
 10
997.328815553994
 20
3970.861253726654
 30
0.0
 11
997.3288155539949
 21
3935.861253726654
 31
0.0
  0
LINE
  5
877
330
1F
100
AcDbEntity
  8
MUR-EST
100
AcDbLine
 10
997.328815553994
 20
4205.861253726653
 30
0.0
 11
997.3288155539949
 21
4190.861253726653
 31
0.0
  0
LINE
  5
878
330
1F
100
AcDbEntity
  8
MUR-EST
100
AcDbLine
 10
997.3288155539931
 20
4240.861253726653
 30
0.0
 11
997.3288155539931
 21
4190.861253726653
 31
0.0
  0
LINE
  5
879
330
1F
100
AcDbEntity
  8
MUR-EST
100
AcDbLine
 10
997.328815553994
 20
4220.861253726654
 30
0.0
 11
997.3288155539949
 21
4190.861253726653
 31
0.0
  0
LINE
  5
87A
330
1F
100
AcDbEntity
  8
MUR-EST
100
AcDbLine
 10
997.328815553994
 20
4190.861253726653
 30
0.0
 11
997.3288155539931
 21
3990.861253726654
 31
0.0
  0
LINE
  5
87B
330
1F
100
AcDbEntity
  8
SERR-EST
370
    15
100
AcDbLine
 10
997.328815553994
 20
3215.861253726656
 30
0.0
 11
997.328815553994
 21
3095.861253726655
 31
0.0
  0
LINE
  5
87C
330
1F
100
AcDbEntity
  8
SERR-EST
370
    15
100
AcDbLine
 10
1004.828815553994
 20
3215.861253726656
 30
0.0
 11
1004.828815553994
 21
3095.861253726655
 31
0.0
  0
LINE
  5
87D
330
1F
100
AcDbEntity
  8
SERR-EST
370
    15
100
AcDbLine
 10
1012.328815553994
 20
3215.861253726656
 30
0.0
 11
1012.328815553994
 21
3095.861253726655
 31
0.0
  0
LINE
  5
87E
330
1F
100
AcDbEntity
  8
SERR-EST
370
    15
100
AcDbLine
 10
1027.328815553993
 20
3215.861253726656
 30
0.0
 11
1027.328815553993
 21
3095.861253726655
 31
0.0
  0
LINE
  5
87F
330
1F
100
AcDbEntity
  8
MUR-EST
100
AcDbLine
 10
1027.328815553993
 20
3000.861253726654
 30
0.0
 11
1577.328815553992
 21
3000.861253726656
 31
0.0
  0
LINE
  5
880
330
1F
100
AcDbEntity
  8
MUR-EST
100
AcDbLine
 10
1027.328815553993
 20
3010.861253726656
 30
0.0
 11
1577.328815553993
 21
3010.861253726655
 31
0.0
  0
LINE
  5
881
330
1F
100
AcDbEntity
  8
SERR-INT
370
    15
100
AcDbLine
 10
1348.364731662919
 20
4495.078430067984
 30
0.0
 11
1348.364731662919
 21
4565.086094806814
 31
0.0
  0
LINE
  5
882
330
1F
100
AcDbEntity
  8
SERR-INT
370
    15
100
AcDbLine
 10
1348.364731662919
 20
4495.078430067984
 30
0.0
 11
1278.357066924087
 21
4495.078430067984
 31
0.0
  0
LINE
  5
883
330
1F
100
AcDbEntity
  8
MUR-EST
100
AcDbLine
 10
1627.328815553992
 20
4320.521244011366
 30
0.0
 11
1627.328815553993
 21
3960.861253726654
 31
0.0
  0
LINE
  5
884
330
1F
100
AcDbEntity
  8
SERR-EST
370
    15
100
AcDbLine
 10
1004.828815553993
 20
3935.861253726654
 30
0.0
 11
1004.828815553992
 21
3815.861253726654
 31
0.0
  0
LINE
  5
885
330
1F
100
AcDbEntity
  8
SERR-EST
370
    15
100
AcDbLine
 10
1012.328815553994
 20
3935.861253726654
 30
0.0
 11
1012.328815553994
 21
3815.861253726654
 31
0.0
  0
LINE
  5
886
330
1F
100
AcDbEntity
  8
SERR-EST
370
    15
100
AcDbLine
 10
1027.328815553993
 20
3935.861253726654
 30
0.0
 11
1027.328815553993
 21
3815.861253726654
 31
0.0
  0
LINE
  5
887
330
1F
100
AcDbEntity
  8
SERR-EST
370
    15
100
AcDbLine
 10
997.3288155539931
 20
3935.861253726654
 30
0.0
 11
997.3288155539931
 21
3815.861253726654
 31
0.0
  0
LINE
  5
888
330
1F
100
AcDbEntity
  8
ASSI-PIL
370
    15
100
AcDbLine
 10
977.328815553994
 20
4460.861253726654
 30
0.0
 11
1047.328815553994
 21
4460.861253726654
 31
0.0
  0
LINE
  5
889
330
1F
100
AcDbEntity
  8
MUR-EST
100
AcDbLine
 10
997.328815553994
 20
4470.861253726654
 30
0.0
 11
997.328815553994
 21
4450.861253726654
 31
0.0
  0
LINE
  5
88A
330
1F
100
AcDbEntity
  8
SERR-EST
370
    15
100
AcDbLine
 10
1004.828815553994
 20
4325.861253726653
 30
0.0
 11
1004.828815553994
 21
4205.861253726653
 31
0.0
  0
LINE
  5
88B
330
1F
100
AcDbEntity
  8
SERR-EST
370
    15
100
AcDbLine
 10
1012.328815553994
 20
4325.861253726653
 30
0.0
 11
1012.328815553994
 21
4205.861253726653
 31
0.0
  0
LINE
  5
88C
330
1F
100
AcDbEntity
  8
SERR-EST
370
    15
100
AcDbLine
 10
1027.328815553992
 20
4325.861253726653
 30
0.0
 11
1027.328815553992
 21
4205.861253726653
 31
0.0
  0
LINE
  5
88D
330
1F
100
AcDbEntity
  8
SERR-EST
370
    15
100
AcDbLine
 10
997.328815553994
 20
4325.861253726653
 30
0.0
 11
997.3288155539922
 21
4205.861253726653
 31
0.0
  0
LINE
  5
88E
330
1F
100
AcDbEntity
  8
MUR-EST
100
AcDbLine
 10
1027.328815553993
 20
4450.861253726654
 30
0.0
 11
1577.328815553993
 21
4450.861253726654
 31
0.0
  0
LINE
  5
88F
330
1F
100
AcDbEntity
  8
MUR-EST
100
AcDbLine
 10
1027.328815553993
 20
4470.861253726654
 30
0.0
 11
1348.364731662919
 21
4470.861253726654
 31
0.0
  0
LINE
  5
890
330
1F
100
AcDbEntity
  8
MUR-EST
100
AcDbLine
 10
1027.328815553993
 20
3720.861253726655
 30
0.0
 11
1577.328815553993
 21
3720.861253726654
 31
0.0
  0
LINE
  5
891
330
1F
100
AcDbEntity
  8
MUR-EST
100
AcDbLine
 10
1027.328815553993
 20
3730.861253726653
 30
0.0
 11
1577.328815553993
 21
3730.861253726653
 31
0.0
  0
LINE
  5
892
330
1F
100
AcDbEntity
  8
SERR-EST
370
    15
100
AcDbLine
 10
1004.828815553994
 20
3635.861253726655
 30
0.0
 11
1004.828815553994
 21
3515.861253726654
 31
0.0
  0
LINE
  5
893
330
1F
100
AcDbEntity
  8
SERR-EST
370
    15
100
AcDbLine
 10
1012.328815553994
 20
3635.861253726655
 30
0.0
 11
1012.328815553994
 21
3515.861253726654
 31
0.0
  0
LINE
  5
894
330
1F
100
AcDbEntity
  8
SERR-EST
370
    15
100
AcDbLine
 10
1027.328815553993
 20
3635.861253726655
 30
0.0
 11
1027.328815553993
 21
3515.861253726654
 31
0.0
  0
LINE
  5
895
330
1F
100
AcDbEntity
  8
SERR-EST
370
    15
100
AcDbLine
 10
997.328815553994
 20
3635.861253726655
 30
0.0
 11
997.3288155539931
 21
3515.861253726654
 31
0.0
  0
LINE
  5
896
330
1F
100
AcDbEntity
  8
MUR-EST
100
AcDbLine
 10
1627.328815553993
 20
2780.861253726654
 30
0.0
 11
1627.328815553993
 21
2511.912987673793
 31
0.0
  0
LINE
  5
897
330
1F
100
AcDbEntity
  8
SCALE
370
    15
100
AcDbLine
 10
1797.328815553992
 20
1170.861253726655
 30
0.0
 11
1627.328815553993
 21
1170.861253726655
 31
0.0
  0
LINE
  5
898
330
1F
100
AcDbEntity
  8
SCALE
370
    15
100
AcDbLine
 10
1674.828815553992
 20
1080.861253726655
 30
0.0
 11
1627.328815553993
 21
1080.861253726655
 31
0.0
  0
LINE
  5
899
330
1F
100
AcDbEntity
  8
SCALE
370
    15
100
AcDbLine
 10
1722.328815553992
 20
1110.861253726655
 30
0.0
 11
1627.328815553993
 21
1110.861253726655
 31
0.0
  0
LINE
  5
89A
330
1F
100
AcDbEntity
  8
SCALE
370
    15
100
AcDbLine
 10
1769.828815553992
 20
1140.861253726655
 30
0.0
 11
1627.328815553993
 21
1140.861253726655
 31
0.0
  0
LINE
  5
89B
330
1F
100
AcDbEntity
  8
SCALE
370
    15
100
AcDbLine
 10
1797.328815553992
 20
1200.861253726655
 30
0.0
 11
1627.328815553993
 21
1200.861253726655
 31
0.0
  0
LINE
  5
89C
330
1F
100
AcDbEntity
  8
SCALE
370
    15
100
AcDbLine
 10
1797.328815553992
 20
1230.861253726655
 30
0.0
 11
1627.328815553993
 21
1230.861253726655
 31
0.0
  0
LINE
  5
89D
330
1F
100
AcDbEntity
  8
SCALE
370
    15
100
AcDbLine
 10
1797.328815553992
 20
1260.861253726653
 30
0.0
 11
1627.328815553993
 21
1260.861253726653
 31
0.0
  0
LINE
  5
89E
330
1F
100
AcDbEntity
  8
SCALE
370
    15
100
AcDbLine
 10
1797.328815553992
 20
1290.861253726653
 30
0.0
 11
1627.328815553993
 21
1290.861253726653
 31
0.0
  0
LINE
  5
89F
330
1F
100
AcDbEntity
  8
MUR-EST
100
AcDbLine
 10
3087.503516473342
 20
5200.861253726654
 30
0.0
 11
2737.328815553992
 21
5200.861253726654
 31
0.0
  0
LINE
  5
8A0
330
1F
100
AcDbEntity
  8
MUR-EST
100
AcDbLine
 10
2837.328815553992
 20
5170.861253726655
 30
0.0
 11
2737.328815553992
 21
5170.861253726655
 31
0.0
  0
LINE
  5
8A1
330
1F
100
AcDbEntity
  8
MUR-EST
100
AcDbLine
 10
3057.503516473342
 20
5170.861253726655
 30
0.0
 11
2867.328815553992
 21
5170.861253726655
 31
0.0
  0
LINE
  5
8A2
330
1F
100
AcDbEntity
  8
MUR-EST
100
AcDbLine
 10
1617.328815553992
 20
4760.861253726655
 30
0.0
 11
1627.328815553993
 21
4760.861253726655
 31
0.0
  0
LINE
  5
8A3
330
1F
100
AcDbEntity
  8
MUR-EST
100
AcDbLine
 10
1027.328815553993
 20
4700.861253726653
 30
0.0
 11
1027.328815553993
 21
4650.861253726653
 31
0.0
  0
LINE
  5
8A4
330
1F
100
AcDbEntity
  8
MUR-EST
100
AcDbLine
 10
997.3288155539902
 20
4940.861253726655
 30
0.0
 11
997.3288155539949
 21
4650.861253726653
 31
0.0
  0
LINE
  5
8A5
330
1F
100
AcDbEntity
  8
MUR-EST
100
AcDbLine
 10
997.328815553994
 20
4650.861253726653
 30
0.0
 11
1027.328815553993
 21
4650.861253726653
 31
0.0
  0
LINE
  5
8A6
330
1F
100
AcDbEntity
  8
MUR-EST
100
AcDbLine
 10
1027.328815553993
 20
4940.861253726653
 30
0.0
 11
1027.328815553993
 21
4760.861253726653
 31
0.0
  0
LINE
  5
8A7
330
1F
100
AcDbEntity
  8
MUR-EST
100
AcDbLine
 10
997.3288155539949
 20
5170.861253726655
 30
0.0
 11
1527.328815553992
 21
5170.861253726655
 31
0.0
  0
LINE
  5
8A8
330
1F
100
AcDbEntity
  8
SERR-EST
370
    15
100
AcDbLine
 10
1004.828815553994
 20
4650.861253726653
 30
0.0
 11
1004.828815553994
 21
4475.861253726653
 31
0.0
  0
LINE
  5
8A9
330
1F
100
AcDbEntity
  8
SERR-EST
370
    15
100
AcDbLine
 10
1012.328815553994
 20
4650.861253726653
 30
0.0
 11
1012.328815553994
 21
4475.861253726653
 31
0.0
  0
LINE
  5
8AA
330
1F
100
AcDbEntity
  8
SERR-EST
370
    15
100
AcDbLine
 10
1027.328815553993
 20
4650.861253726653
 30
0.0
 11
1027.328815553993
 21
4470.861253726654
 31
0.0
  0
LINE
  5
8AB
330
1F
100
AcDbEntity
  8
SERR-EST
370
    15
100
AcDbLine
 10
997.328815553994
 20
4650.861253726653
 30
0.0
 11
997.3288155539931
 21
4470.861253726654
 31
0.0
  0
LINE
  5
8AC
330
1F
100
AcDbEntity
  8
MUR-EST
100
AcDbLine
 10
2837.328815553992
 20
4580.861253726652
 30
0.0
 11
2837.328815553992
 21
4470.861253726654
 31
0.0
  0
LINE
  5
8AD
330
1F
100
AcDbEntity
  8
MUR-EST
100
AcDbLine
 10
2867.328815553992
 20
4580.861253726652
 30
0.0
 11
2867.328815553992
 21
4310.861253726653
 31
0.0
  0
LWPOLYLINE
  5
8B1
330
1F
100
AcDbEntity
  8
TT
100
AcDbPolyline
 90
        4
 70
     1
 43
0.0
 10
392.492607116259
 20
5558.622009129167
 10
7541.986253304371
 20
5558.622009129167
 10
7541.986253304371
 20
427.1439255760269
 10
392.492607116259
 20
427.1439255760269
  0
LWPOLYLINE
  5
8B3
330
1F
100
AcDbEntity
  8
TT
100
AcDbPolyline
 90
        4
 70
     1
 43
0.0
 10
417.492607116259
 20
5533.622009129167
 10
7516.986253304371
 20
5533.622009129167
 10
7516.986253304371
 20
452.143925576026
 10
417.492607116259
 20
452.1439255760269
  0
IMAGE
  5
8D3
330
1F
100
AcDbEntity
  8
TT
 92
      140
310
8C0000000100000084000000060000000500000064DE8461FF16B2403FEE89E5EA268A40000000000000000064DE8461FF16B24058EDA74E4C3B9D40000000000000000077307B559C79B74058EDA74E4C3B9D40000000000000000077307B559C79B7403FEE89E5EA268A40000000000000000064DE8461FF16B2403FEE89
310
E5EA268A400000000000000000
100
AcDbRasterImage
 90
        0
 10
4630.997581772131
 20
836.8646956230003
 30
0.0
 11
0.6731509265466769
 21
0.0
 31
0.0
 12
0.0
 22
0.6731509265466769
 32
0.0
 13
2048.0
 23
1536.0
340
8D1
 70
     7
280
     0
281
    50
282
    50
283
     0
360
8D2
 71
     1
 91
        2
 14
-0.5
 24
-0.5
 14
2047.5
 24
1535.5
  0
IMAGE
  5
8D6
330
1F
100
AcDbEntity
  8
TT
 92
      140
310
8C0000000100000084000000060000000500000064DE8461FF16B240341E215509F1A040000000000000000064DE8461FF16B24044CD44768513A9400000000000000000195347225283B74044CD44768513A9400000000000000000195347225283B740341E215509F1A040000000000000000064DE8461FF16B240341E21
310
5509F1A0400000000000000000
100
AcDbRasterImage
 90
        0
 10
4630.997581772131
 20
2168.518227610528
 30
0.0
 11
0.6778922137587764
 21
0.0
 31
0.0
 12
0.0
 22
0.6778922137587764
 32
0.0
 13
2048.0
 23
1536.0
340
8D4
 70
     7
280
     0
281
    50
282
    50
283
     0
360
8D5
 71
     1
 91
        2
 14
-0.5
 24
-0.5
 14
2047.5
 24
1535.5
  0
IMAGE
  5
8D9
330
1F
100
AcDbEntity
  8
TT
 92
      140
310
8C0000000100000084000000060000000500000064DE8461FF16B240B070E513AA6DAB40000000000000000064DE8461FF16B240E08F841A13C8B1400000000000000000195347225283B740E08F841A13C8B1400000000000000000195347225283B740B070E513AA6DAB40000000000000000064DE8461FF16B240B070E5
310
13AA6DAB400000000000000000
100
AcDbRasterImage
 90
        0
 10
4630.997581772131
 20
3510.832183046347
 30
0.0
 11
0.6778922137587764
 21
0.0
 31
0.0
 12
0.0
 22
0.6778922137587763
 32
0.0
 13
2048.0
 23
1536.0
340
8D7
 70
     7
280
     0
281
    50
282
    50
283
     0
360
8D8
 71
     1
 91
        2
 14
-0.5
 24
-0.5
 14
2047.5
 24
1535.5
  0
LINE
  5
8DB
330
1F
100
AcDbEntity
  8
TT
  6
HIDDEN
 48
5.0
100
AcDbLine
 10
1721.394713223264
 20
1670.213432710563
 30
0.0
 11
4630.997581772131
 21
1353.844607210848
 31
0.0
  0
LINE
  5
8DC
330
1F
100
AcDbEntity
  8
TT
  6
HIDDEN
 48
5.0
100
AcDbLine
 10
4630.997581772131
 20
2689.139447777268
 30
0.0
 11
1460.736231748456
 21
2443.945245361858
 31
0.0
  0
LINE
  5
8DD
330
1F
100
AcDbEntity
  8
TT
  6
HIDDEN
 48
5.0
100
AcDbLine
 10
1104.702376362681
 20
2868.749370148012
 30
0.0
 11
4630.997581772131
 21
4031.453403213087
 31
0.0
  0
LINE
  5
920
102
{ACAD_REACTORS
330
923
102
}
330
1F
100
AcDbEntity
  8
VISTE
100
AcDbLine
 10
1152.355424823984
 20
2853.560892691442
 30
0.0
 11
1104.702376368268
 21
2868.749370133111
 31
0.0
  0
LINE
  5
921
102
{ACAD_REACTORS
330
923
102
}
330
1F
100
AcDbEntity
  8
VISTE
100
AcDbLine
 10
1104.702376368268
 20
2868.749370133111
 30
0.0
 11
1115.375293279811
 21
2819.886380893716
 31
0.0
  0
CIRCLE
  5
922
102
{ACAD_REACTORS
330
923
102
}
330
1F
100
AcDbEntity
  8
VISTE
100
AcDbCircle
 10
1104.702376362681
 20
2868.749370148012
 30
0.0
 40
5.699611514806747
  0
HATCH
  5
923
330
1F
100
AcDbEntity
  8
VISTE
100
AcDbHatch
 10
0.0
 20
0.0
 30
0.0
210
0.0
220
0.0
230
1.0
  2
ANSI38
 70
     0
 71
     1
 91
        1
 92
        7
 72
     1
 73
     1
 93
        5
 10
1104.702376368267
 20
2868.749370133111
 42
0.0
 10
1110.132821622867
 20
2867.018521888967
 42
0.077291084807765
 10
1110.401987877487
 20
2868.749370148012
 42
1.0
 10
1099.002764847874
 20
2868.749370148012
 42
0.4786977625310881
 10
1105.918640444302
 20
2863.181042472357
 42
0.0
 97
        3
330
922
330
921
330
920
 75
     0
 76
     1
 52
-17.67866401188374
 41
7.999999999999998
 77
     0
 78
     2
 53
27.32133598811621
 43
-22753544.43210175
 44
-34640516.09943271
 45
-0.458980428842177
 46
0.8884463776389946
 79
     0
 53
117.3213359881162
 43
-22753544.43210175
 44
-34640516.09943271
 45
-1.806407235323348
 46
1.317912326435812
 79
     2
 49
2.499999999999999
 49
-1.499999999999999
 47
0.0383932725949472
 98
        2
 10
1103.697967304661
 20
2869.226135452816
 10
1107.052043850347
 20
2865.578140934536
  0
HATCH
  5
924
330
1F
100
AcDbEntity
  8
VISTE
100
AcDbHatch
 10
0.0
 20
0.0
 30
0.0
210
0.0
220
0.0
230
1.0
  2
ANSI38
 70
     0
 71
     1
 91
        2
 92
        7
 72
     1
 73
     1
 93
        5
 10
1460.736231746889
 20
2443.945245377693
 42
0.0
 10
1455.933502229983
 20
2447.01434304556
 42
0.1431219298914555
 10
1455.036620233649
 20
2443.945245361858
 42
1.0
 10
1466.435843263263
 20
2443.945245361858
 42
0.4010860077527276
 10
1460.992783535731
 20
2449.639079974855
 42
0.0
 97
        3
330
925
330
926
330
927
 92
       23
 72
     1
 73
     1
 93
        3
 10
1460.992783535731
 20
2449.639079974855
 42
0.2679491917594874
 10
1455.933502229984
 20
2447.014343045561
 42
0.0
 10
1460.736231746888
 20
2443.945245377696
 42
0.0
 97
        3
330
927
330
926
330
925
 75
     0
 76
     1
 52
147.4201218801202
 41
7.999999999999998
 77
     0
 78
     2
 53
192.4201218801202
 43
30899545.08998772
 44
27629361.15081951
 45
0.2150783144434935
 46
-0.976596804549424
 79
     0
 53
282.4201218801202
 43
30899545.08998772
 44
27629361.15081951
 45
1.40675343343641
 46
-1.738115294655353
 79
     2
 49
2.499999999999998
 49
-1.499999999999999
 47
0.0383932725949472
 98
        2
 10
1461.584261405522
 20
2443.226226299223
 10
1459.281074061782
 20
2447.614052815775
  0
CIRCLE
  5
925
102
{ACAD_REACTORS
330
924
102
}
330
1F
100
AcDbEntity
  8
VISTE
100
AcDbCircle
 10
1460.736231748456
 20
2443.945245361858
 30
0.0
 40
5.699611514806747
  0
LINE
  5
926
102
{ACAD_REACTORS
330
924
102
}
330
1F
100
AcDbEntity
  8
VISTE
100
AcDbLine
 10
1460.736231746888
 20
2443.945245377696
 30
0.0
 11
1462.987515805822
 21
2493.909578585454
 31
0.0
  0
LINE
  5
927
102
{ACAD_REACTORS
330
924
102
}
330
1F
100
AcDbEntity
  8
VISTE
100
AcDbLine
 10
1418.591491921928
 20
2470.877081171144
 30
0.0
 11
1460.736231746888
 21
2443.945245377696
 31
0.0
  0
LINE
  5
928
102
{ACAD_REACTORS
330
92B
102
}
330
1F
100
AcDbEntity
  8
VISTE
100
AcDbLine
 10
1697.601025363734
 20
1714.206196810438
 30
0.0
 11
1721.394713229574
 21
1670.213432725174
 31
0.0
  0
LINE
  5
929
102
{ACAD_REACTORS
330
92B
102
}
330
1F
100
AcDbEntity
  8
VISTE
100
AcDbLine
 10
1721.394713229574
 20
1670.213432725174
 30
0.0
 11
1747.596720574023
 21
1712.815752895927
 31
0.0
  0
CIRCLE
  5
92A
102
{ACAD_REACTORS
330
92B
102
}
330
1F
100
AcDbEntity
  8
VISTE
100
AcDbCircle
 10
1721.394713223264
 20
1670.213432710563
 30
0.0
 40
5.699611514806747
  0
HATCH
  5
92B
330
1F
100
AcDbEntity
  8
VISTE
100
AcDbHatch
 10
0.0
 20
0.0
 30
0.0
210
0.0
220
0.0
230
1.0
  2
ANSI38
 70
     0
 71
     1
 91
        2
 92
        7
 72
     1
 73
     1
 93
        5
 10
1721.394713229575
 20
1670.213432725172
 42
0.0
 10
1718.683232567838
 20
1675.226759358106
 42
0.2754133028952181
 10
1715.695101708458
 20
1670.213432710563
 42
1.0
 10
1727.094324738071
 20
1670.213432710563
 42
0.2605128355333725
 10
1724.380641117624
 20
1675.068307171288
 42
0.0
 97
        3
330
92A
330
929
330
928
 92
       23
 72
     1
 73
     1
 93
        3
 10
1724.380641117624
 20
1675.068307171288
 42
0.2679491917594748
 10
1718.683232567838
 20
1675.226759358106
 42
0.0
 10
1721.394713229574
 20
1670.213432725174
 42
0.0
 97
        3
330
928
330
929
330
92A
 75
     0
 76
     1
 52
118.4069420956853
 41
7.999999999999998
 77
     0
 78
     2
 53
163.4069420956853
 43
40421701.50660314
 44
9175730.316238427
 45
-0.2855722526195759
 46
-0.9583571821266751
 79
     0
 53
253.4069420956853
 43
40421701.50660314
 44
9175730.316238427
 45
0.3872126768875235
 46
-2.202286616872925
 79
     2
 49
2.499999999999997
 49
-1.499999999999998
 47
0.0383932725949472
 98
        2
 10
1721.787590072338
 20
1669.173341131347
 10
1721.901577174228
 20
1674.127601966256
  0
INSERT
  5
93C
330
1F
100
AcDbEntity
  8
DEST-LOC
100
AcDbBlockReference
 66
     1
  2
DEST-LOC
 10
3909.899101259615
 20
5803.902169236444
 30
0.0
 41
20.0
 42
20.0
 43
20.0
  0
ATTRIB
  5
93D
330
93C
100
AcDbEntity
  8
0
100
AcDbText
 10
3745.529562673949
 20
5766.919203985244
 30
0.0
 40
100.0
  1
TAV. 4
  7
ROMANS
 72
     4
 11
3988.386705531091
 21
5816.919203985244
 31
0.0
100
AcDbAttribute
  2
DEST-LOC
 70
     0
  0
ATTRIB
  5
93E
330
93C
100
AcDbEntity
  8
0
100
AcDbText
 10
3988.386705531091
 20
5788.460456229504
 30
0.0
 40
20.0
  1

  7
ROMANS
 72
     4
 11
3988.386705531091
 21
5788.460456229504
 31
0.0
100
AcDbAttribute
  2
DEST-LOC
 70
     0
  0
SEQEND
  5
93F
330
93C
100
AcDbEntity
  8
DEST-LOC
  0
VIEWPORT
  5
2E
330
1B
100
AcDbEntity
 67
     1
  8
0
100
AcDbViewport
 10
167.8905644556105
 20
148.5003154074507
 30
0.0
 40
528.6699104647304
 41
300.7470258269392
 68
     1
 69
     1
 12
167.8905644556105
 22
148.5003154074507
 13
0.0
 23
0.0
 14
10.0
 24
10.0
 15
10.0
 25
10.0
 16
0.0
 26
0.0
 36
1.0
 17
0.0
 27
0.0
 37
0.0
 42
50.0
 43
0.0
 44
0.0
 45
300.7470258269392
 50
0.0
 51
0.0
 72
  1000
 90
    32864
  1

281
     0
 71
     1
 74
     0
110
0.0
120
0.0
130
0.0
111
1.0
121
0.0
131
0.0
112
0.0
122
1.0
132
0.0
 79
     0
146
0.0
170
     0
  0
INSERT
  5
AB
330
1B
100
AcDbEntity
 67
     1
  8
Title Block
100
AcDbBlockReference
 66
     1
  2
ISO A4 title block (portrait)
 10
0.0
 20
0.0
 30
0.0
  0
ATTRIB
  5
AD
330
AB
100
AcDbEntity
 67
     1
  8
FRAME 025
100
AcDbText
 10
64.0
 20
31.75
 30
0.0
 40
2.5
  1
XXX
  7
ISO Proportional
 11
64.0
 21
33.0
 31
0.0
100
AcDbAttribute
  2
CHECKED_BY
 70
     0
 74
     2
  0
ATTRIB
  5
AE
330
AB
100
AcDbEntity
 67
     1
  8
FRAME 025
100
AcDbText
 10
32.0
 20
31.75
 30
0.0
 40
2.5
  1
XXX
  7
ISO Proportional
 11
32.0
 21
33.0
 31
0.0
100
AcDbAttribute
  2
DESIGNED_BY
 70
     0
 74
     2
  0
ATTRIB
  5
AF
330
AB
100
AcDbEntity
 67
     1
  8
FRAME 050
100
AcDbText
 10
60.75
 20
17.5
 30
0.0
 40
5.0
  1
XXX
  7
ISO Proportional
 72
     4
 11
67.5
 21
20.0
 31
0.0
100
AcDbAttribute
  2
OWNER
 70
     0
  0
ATTRIB
  5
B0
330
AB
100
AcDbEntity
 67
     1
  8
FRAME 050
100
AcDbText
 10
133.65
 20
13.5
 30
0.0
 40
3.0
  1
X
  7
ISO Proportional
 72
     4
 11
135.0
 21
15.0
 31
0.0
100
AcDbAttribute
  2
DRAWING_NUMBER
 70
     0
  0
ATTRIB
  5
B1
330
AB
100
AcDbEntity
 67
     1
  8
FRAME 025
100
AcDbText
 10
89.0
 20
31.75
 30
0.0
 40
2.5
  1
XXX - 00/00/00
  7
ISO Proportional
 11
89.0
 21
33.0
 31
0.0
100
AcDbAttribute
  2
APPROVED_BY_DATE
 70
     0
 74
     2
  0
ATTRIB
  5
B2
330
AB
100
AcDbEntity
 67
     1
  8
FRAME 025
100
AcDbText
 10
127.0
 20
31.75
 30
0.0
 40
2.5
  1
XXX
  7
ISO Proportional
 11
127.0
 21
33.0
 31
0.0
100
AcDbAttribute
  2
FILENAME
 70
     0
 74
     2
  0
ATTRIB
  5
B3
330
AB
100
AcDbEntity
 67
     1
  8
FRAME 025
100
AcDbText
 10
167.0
 20
11.75
 30
0.0
 40
2.5
  1
0
  7
ISO Proportional
 11
167.0
 21
13.0
 31
0.0
100
AcDbAttribute
  2
EDITION
 70
     0
 74
     2
  0
ATTRIB
  5
B4
330
AB
100
AcDbEntity
 67
     1
  8
FRAME 025
100
AcDbText
 10
152.0
 20
31.75
 30
0.0
 40
2.5
  1
00/00/00
  7
ISO Proportional
 11
152.0
 21
33.0
 31
0.0
100
AcDbAttribute
  2
DATE
 70
     0
 74
     2
  0
ATTRIB
  5
B5
330
AB
100
AcDbEntity
 67
     1
  8
FRAME 050
100
AcDbText
 10
145.75
 20
22.5
 30
0.0
 40
5.0
  1
XXX
  7
ISO Proportional
 72
     4
 11
152.5
 21
25.0
 31
0.0
100
AcDbAttribute
  2
TITLE
 70
     0
  0
ATTRIB
  5
B6
330
AB
100
AcDbEntity
 67
     1
  8
FRAME 025
100
AcDbText
 10
182.0
 20
31.75
 30
0.0
 40
2.5
  1
1:1
  7
ISO Proportional
 11
182.0
 21
33.0
 31
0.0
100
AcDbAttribute
  2
SCALE
 70
     0
 74
     2
  0
ATTRIB
  5
B7
330
AB
100
AcDbEntity
 67
     1
  8
FRAME 025
100
AcDbText
 10
182.0
 20
11.75
 30
0.0
 40
2.5
  1
1/1
  7
ISO Proportional
 11
182.0
 21
13.0
 31
0.0
100
AcDbAttribute
  2
SHEET
 70
     0
 74
     2
  0
SEQEND
  5
AC
330
AB
100
AcDbEntity
 67
     1
  8
0
  0
LWPOLYLINE
  5
C5
102
{ACAD_REACTORS
330
C7
102
}
330
1B
100
AcDbEntity
 67
     1
  8
Viewport
100
AcDbPolyline
 90
        8
 70
     1
 43
0.0
 10
10.0
 20
287.0
 10
30.0
 20
287.0
 10
30.0
 20
281.0
 10
200.0
 20
281.0
 10
200.0
 20
46.0
 10
30.0
 20
46.00000000000002
 10
30.0
 20
10.0
 10
10.0
 20
10.0
  0
VIEWPORT
  5
C7
330
1B
100
AcDbEntity
 67
     1
  8
Viewport
100
AcDbViewport
 10
105.0
 20
148.5
 30
0.0
 40
190.0
 41
277.0
 68
     2
 69
     2
 12
210.0
 22
148.5
 13
0.0
 23
0.0
 14
10.0
 24
10.0
 15
10.0
 25
10.0
 16
0.0
 26
0.0
 36
1.0
 17
0.0
 27
0.0
 37
0.0
 42
50.0
 43
0.0
 44
0.0
 45
627.1898572341785
 50
0.0
 51
0.0
 72
   100
 90
    98368
340
C5
  1

281
     0
 71
     1
 74
     0
110
0.0
120
0.0
130
0.0
111
1.0
121
0.0
131
0.0
112
0.0
122
1.0
132
0.0
 79
     0
146
0.0
170
     0
  0
ENDSEC
  0
SECTION
  2
OBJECTS
  0
DICTIONARY
  5
C
330
0
100
AcDbDictionary
281
     1
  3
ACAD_COLOR
350
E8
  3
ACAD_GROUP
350
D
  3
ACAD_IMAGE_DICT
350
8CF
  3
ACAD_IMAGE_VARS
350
8D0
  3
ACAD_LAYOUT
350
1A
  3
ACAD_MATERIAL
350
E7
  3
ACAD_MLINESTYLE
350
17
  3
ACAD_PLOTSETTINGS
350
19
  3
ACAD_PLOTSTYLENAME
350
E
  3
AcDbVariableDictionary
350
E3
  0
IMAGEDEF_REACTOR
  5
8D2
330
8D3
100
AcDbRasterImageDefReactor
 90
        2
330
8D3
  0
IMAGEDEF_REACTOR
  5
8D5
330
8D6
100
AcDbRasterImageDefReactor
 90
        2
330
8D6
  0
IMAGEDEF_REACTOR
  5
8D8
330
8D9
100
AcDbRasterImageDefReactor
 90
        2
330
8D9
  0
DICTIONARY
  5
E8
102
{ACAD_REACTORS
330
C
102
}
330
C
100
AcDbDictionary
281
     1
  0
DICTIONARY
  5
D
102
{ACAD_REACTORS
330
C
102
}
330
C
100
AcDbDictionary
281
     1
  0
DICTIONARY
  5
8CF
102
{ACAD_REACTORS
330
C
102
}
330
C
100
AcDbDictionary
281
     1
  3
DSC00009
350
8D1
  3
DSC00010
350
8D4
  3
DSC00011
350
8D7
  0
RASTERVARIABLES
  5
8D0
102
{ACAD_REACTORS
330
C
102
}
330
C
100
AcDbRasterVariables
 90
        0
 70
     1
 71
     1
 72
     1
  0
DICTIONARY
  5
1A
102
{ACAD_REACTORS
330
C
102
}
330
C
100
AcDbDictionary
281
     1
  3
ISO A4 Title Block (portrait)
350
1E
  3
Model
350
22
  0
DICTIONARY
  5
E7
102
{ACAD_REACTORS
330
C
102
}
330
C
100
AcDbDictionary
281
     1
  0
DICTIONARY
  5
17
102
{ACAD_REACTORS
330
C
102
}
330
C
100
AcDbDictionary
281
     1
  3
Standard
350
18
  0
DICTIONARY
  5
19
102
{ACAD_REACTORS
330
C
102
}
330
C
100
AcDbDictionary
281
     1
  3
ISO A4 title block (portrait) - no output device
350
B8
  0
ACDBDICTIONARYWDFLT
  5
E
102
{ACAD_REACTORS
330
C
102
}
330
C
100
AcDbDictionary
281
     1
  3
Normal
350
F
100
AcDbDictionaryWithDefault
340
F
  0
DICTIONARY
  5
E3
102
{ACAD_REACTORS
330
C
102
}
330
C
100
AcDbDictionary
281
     1
  3
DIMASSOC
350
E5
  3
HIDETEXT
350
E4
  0
IMAGEDEF
  5
8D1
102
{ACAD_REACTORS
330
8CF
330
8D2
102
}
330
8CF
100
AcDbRasterImageDef
 90
        0
  1
C:\Documents and Settings\u215625\Desktop\foto millio42\021205\DSC00009.JPG
 10
2048.0
 20
1536.0
 11
0.00048828125
 21
0.00048828125
280
     1
281
     0
  0
IMAGEDEF
  5
8D4
102
{ACAD_REACTORS
330
8CF
330
8D5
102
}
330
8CF
100
AcDbRasterImageDef
 90
        0
  1
C:\Documents and Settings\u215625\Desktop\foto millio42\021205\DSC00010.JPG
 10
2048.0
 20
1536.0
 11
0.00048828125
 21
0.00048828125
280
     1
281
     0
  0
IMAGEDEF
  5
8D7
102
{ACAD_REACTORS
330
8CF
330
8D8
102
}
330
8CF
100
AcDbRasterImageDef
 90
        0
  1
C:\Documents and Settings\u215625\Desktop\foto millio42\021205\DSC00011.JPG
 10
2048.0
 20
1536.0
 11
0.00048828125
 21
0.00048828125
280
     1
281
     0
  0
LAYOUT
  5
1E
102
{ACAD_REACTORS
330
1A
102
}
330
1A
100
AcDbPlotSettings
  1
ISO A4 title block (portrait) - no output device
  2
none_device
  4
ISO_A4_(210.00_x_297.00_MM)
  6

 40
7.549999999999999
 41
20.05
 42
7.549999999999999
 43
20.05
 44
210.0
 45
297.0
 46
-7.55766662415121
 47
-20.05969249946332
 48
0.0
 49
0.0
140
0.0
141
0.0
142
1.0
143
1.0
 70
   692
 72
     1
 73
     0
 74
     1
  7
monochrome.ctb
 75
    16
147
1.0
 76
     0
 77
     2
 78
   300
148
0.0089239911650907
149
0.0090630675789498
100
AcDbLayout
  1
ISO A4 Title Block (portrait)
 70
     1
 71
     1
 10
-0.0012573670138805
 20
0.0006294318843736
 11
209.9987426329861
 21
297.0006294318844
 12
0.0
 22
0.0
 32
0.0
 14
-0.0076656078521182
 24
-0.0090630484138501
 34
-0.0015258207003583
 15
210.0064092187328
 25
297.0096938633153
 35
0.0000000349246037
146
0.0
 13
0.0
 23
0.0
 33
0.0
 16
1.0
 26
0.0
 36
0.0
 17
0.0
 27
1.0
 37
0.0
 76
     0
330
1B
331
2E
  0
LAYOUT
  5
22
102
{ACAD_REACTORS
330
1A
102
}
330
1A
100
AcDbPlotSettings
  1

  2
\\wqt02622\HP
  4
A3
  6

 40
6.043083190917968
 41
13.4937515258789
 42
6.043060302734375
 43
3.67242431640625
 44
297.0106506347656
 45
419.9466552734374
 46
0.0
 47
2.9
 48
392.492607116259
 49
427.1439255760269
140
7541.986253304371
141
5558.622009129167
142
1.0
143
18.00995686556262
 70
 11956
 72
     1
 73
     1
 74
     4
  7
monochrome.ctb
 75
     0
147
0.0555248414787783
 76
     0
 77
     2
 78
   150
148
-392.492607116259
149
-427.1439255760269
100
AcDbLayout
  1
Model
 70
     1
 71
     0
 10
0.0
 20
0.0
 11
12.0
 21
9.0
 12
0.0
 22
0.0
 32
0.0
 14
0.0
 24
0.0
 34
0.0
 15
0.0
 25
0.0
 35
0.0
146
0.0
 13
0.0
 23
0.0
 33
0.0
 16
1.0
 26
0.0
 36
0.0
 17
0.0
 27
1.0
 37
0.0
 76
     0
330
1F
  0
MLINESTYLE
  5
18
102
{ACAD_REACTORS
330
17
102
}
330
17
100
AcDbMlineStyle
  2
STANDARD
 70
     0
  3

 62
   256
 51
90.0
 52
90.0
 71
     2
 49
0.5
 62
   256
  6
BYLAYER
 49
-0.5
 62
   256
  6
BYLAYER
  0
PLOTSETTINGS
  5
B8
102
{ACAD_REACTORS
330
19
102
}
330
19
100
AcDbPlotSettings
  1
ISO A4 title block (portrait) - no output device
  2
None
  4
ISO_A4_(210.00_x_297.00_MM)
  6

 40
7.549999999999999
 41
20.05
 42
7.549999999999999
 43
20.05
 44
210.0
 45
297.0
 46
-7.559999999999999
 47
-20.06
 48
0.0
 49
0.0
140
0.0
141
0.0
142
1.0
143
1.0
 70
   692
 72
     1
 73
     0
 74
     1
  7

 75
    16
147
1.0
 76
     0
 77
     2
 78
   300
148
0.0128164049386896
149
0.0090630292066862
  0
ACDBPLACEHOLDER
  5
F
102
{ACAD_REACTORS
330
E
102
}
330
E
  0
DICTIONARYVAR
  5
E5
102
{ACAD_REACTORS
330
E3
102
}
330
E3
100
DictionaryVariables
280
     0
  1
2
  0
DICTIONARYVAR
  5
E4
102
{ACAD_REACTORS
330
E3
102
}
330
E3
100
DictionaryVariables
280
     0
  1
1
  0
ENDSEC
  0
EOF
